311 - Feels So Good Chords & Tabs

 

Feels So Good Chords & Tabs

311 Chords & Tabs

Version: 2 Type: Bass Tab 0 ratings
1 star 2 stars 3 stars 4 stars 5 stars
comments

Feels So Good Bass Tab

311-Feels so Good 


Verse:
======

G:----------------------------------------2-
D:------------------3-2-----------3-2-3-----
A:-5-5-5----------------5-5-------------5---
E:-------3-3-3-5-5----------3-4-5-----------
B:------------------------------------------
[ Tab from: http://www.guitartabs.cc/tabs/0-9/311/feels_so_good_btab_ver_2.html ]
[Solo - Version 1:]
The other part follow the guitar exactly, so I'm not going to worry about
tabbing that out....as for the solo it's something like this:

Very Fast
1:--------7----------7----------7----------7-
2:------------x--x-------x--x-------x--x-----
3:-------------------------------------------
4:-0h5---------------------------------------
   (triplet)

[Solo - Version 2:]
(ex: RRL RRL  meaning slap righthand righthand lefthand)
Enlarged To show detail vertion:
1:---7-7-x-7-x-7-x-7-x-7-7------|
2:*--7-7-x-7-x-7-x-7-x-7-7--rrl*|
Comments