311 - Evolution Chords & Tabs

 

Evolution Chords & Tabs

311 Chords & Tabs

Version: 1 Type: Tab 0 ratings
1 star 2 stars 3 stars 4 stars 5 stars
comments

Evolution Tab

   
'Evolution'
Performed by 311
From the album "Soundsystem" on Capricorn Records
Music by:  C. Sexton & N. Hexum
Lyrics by:  N. Hexum & D. Martinez
---------------
Tabbed by: Adam Rechkemmer (KWSROK@aol.com)
           Matt Binkley (binkldjm@icx.net)
           Mike Saffert (ComeOrgnal311@aol.com)
Additions/Corrections by: Michael Slusarz (slusarz@bigworm.colorado.edu)Intro/Verse A:
==============
   N.C.
e:----------------------------
G:----------------------------
B:----------------------------
D:-11-11-11-10-9--------------
A:----------------7-7-7-7h9p7-
E:----------------------------

Chorus A:
=========
    N.C.
e:-------------------------------
G:-------------------------------
B:-------------------------------
D:-------------------------------
A:-------------------------------
E:--7--5-4-5-4-5--7--5-4-5-4-5-4-

Chorus B:
=========
   G5      A#5     E5            F5
e:-------------------------------------
G:-------------------------------------
B:-------------------------------------
D:-------------------------------------
A:-5-5-5---8-8-8---2-2-2---2-2-2-3-3-3-
E:-3-3-3---6-6-6---0-0-0---0-0-0-1-1-1-

Verse B (w/Heavy Distortion):
=============================
   N.C.
e:-------------
G:-------------
B:-------------
D:-------------
A:-------------
E:-9///--3h4-0-

Bridge (w/flanger[?] effect):
=============================
   N.C.
e:-7-4-2-7-7-7-4-2-4-7-11-9-7-2-4-2-4-7-4-2-
G:-7-4-2-7-7-7-4-2-4-7-11-9-7-2-4-2-4-7-4-2-
B:------------------------------------------
D:------------------------------------------
A:------------------------------------------
E:------------------------------------------

e:-7-4-2-7-7-7-4-2-4-7-11-9-7-
G:-7-4-2-7-7-7-4-2-4-7-11-9-7-
B:----------------------------
D:----------------------------
A:----------------------------
E:----------------------------

[ Tab from: http://www.guitartabs.cc/tabs/0-9/311/evolution_tab.html ]
Lyrics/Song Structure:
======================
---> Drum Intro
---> Play Intro (x4)
---> Play Verse A over:
SA:
   My computer is future shockin'
   Download this and you'll start talkin'
   Upgraded you're now walkin'
   Compatible with all that is rockin'
   Comin' on fast it's gettin' digital
   It's so huge like a spiritual
   Rippling out to every individual
   This is life it is a miracle
---> Play Chorus A over:
Nick:
   Evolution has expontential timing it'll be
   Half as long 'til the next breakthrough that blows our mind
   It's up to the people to brave on with experimentation
   Move forth the species by using our imagination
---> Play Chorus B over:
   But can we handle it, could we dismantle it
   Or should we fear the void and just be paranoid
   If it's understood it could be used for good and would
   If you will believe in all we can concieve
---> Play Verse A over:
   On the periodic table they got it all wrong
   Let me lay it down for you in this song
   People want PT, they want AU
   Lemme tell you what you really ought to do
   Figure out ways to master silicon
   Fiber optic connectors, whatever's beyond
   So many people don't even attempt to understand
   The limitless possibilities of man
---> Play Chorus A over:
   Evolution has expontential timing it'll be
   Half as long 'til the next breakthrough that blows our mind
   It's up to the people to brave on with experimentation
   Move forth the species by using our imagination
---> Play Chorus B over:
   But can we handle it, could we dismantle it
   Or should we fear the void and just be paranoid
   If it's understood it could be used for good and would
   If you will believe in all we can concieve
---> Play Verse B over:
SA:
   I feel trapped I gotta adapt
   Remain calm collected before I get zapped
   My computer is a rebel acting all fine
   And just like that payin' me no mind
   What's up is it's program overcome by a glitch
   Is it becoming concsious and if so aint that a bitch
   I paid too much for this piece I'll be ***ed if it tries
   Any funny business it'll be the one that pays the price
---> Play Chorus B over:
Nick:
   Yes can we handle it
   We could we dismantle it
   We should not fear the void and just be paranoid
   If it's understood it could be used for good and would
   If you will believe in all we can concieve
   If we can handle it
   We could we dismantle it
   We should not fear the void and just be paranoid
   If it's understood it could be used for good and would
   If you will believe in all we can concieve
Comments