311 - Eons Chords & Tabs

 

Eons Chords & Tabs

311 Chords & Tabs

Version: 1 Type: Tab 0 ratings
1 star 2 stars 3 stars 4 stars 5 stars
comments

Eons Tab

 Eons by 311

  Intro,Verse
 
 e----------------------------------------------------------
 B----------------------------------------------------------
 G----------------------------------------------------------
 D----------------------------------------------------------
 A----------------------------------------------------------
 E--0-0-0-0-0-0-4-0-0-0-4-0-0-5-0-0-0-0-0-0-4-0-0-0-4-0-0-5-
 
 e----------------------------------------------------------
 B----------------------------------------------------------
 G----------------------------------------------------------
 D----------------------------------------------------------
 A----------------------------------------------------------
 E--0-0-0-0-0-0-4-0-0-0-3-0-0-2-0-0-0-0-0-0-4-0-0-0-3-0-0-2-
[ Tab from: http://www.guitartabs.cc/tabs/0-9/311/eons_tab.html ]
 Pre-chorus
 
 e----------------------
 B----------------------
 G----------------------
 D----------------------
 A--------------------x-
 E--1-3-1-3-x-1-3-1-3---

 First Chorus

 e---------------------------------------
 B---------------------------------------
 G--4--7-7---------4-4-4-4-4-4-4-4-4-4-4-
 D--4--7-7--5-5--5-4-4-4-4-4-4-4-4-4-4-4-
 A--2--5-5--5-5--5-2-2-2-2-2-2-2-2-2-2-2-
 E--2--5-5--3-3--3-2-2-2-2-2-2-2-2-2-2-2-

 e---------------------------------
 B---------------------------------
 G--4--7-7---------4-4-5-5-5-5-5-5-
 D--4--7-7--5-5--5-4-4-5-5-5-5-5-5-
 A--2--5-5--5-5--5-2-2-3-3-3-3-3-3-
 E--2--5-5--3-3--3-2-2-3-3-3-3-3-3-

 Outro Chorus

 e-------------------
 B-------------------
 G-------------------
 D---------------7-7-
 A--4--4/7-7-7-2-5-5-
 E--2--2/5-5-5-0-5-5-
  
 Ending
 
 e------
 B------
 G------
 D--7-7-  
 A--5-5-   Let this chord ring out.
 E--5-5-  


  That's the whole song. It was originally recorded with a 7-string guitar 
 tuned (from low to high): BEADF#BE 
  Have fun with this tab. Later.
Comments