311 - Electricity Chords & Tabs

 

Electricity Chords & Tabs

311 Chords & Tabs

Version: 3 Type: Bass Tab

Electricity Bass Tab

   
Artist: 311
Song: Electricity
Album: Transistor (1997)
Bassist: P-Nut
Tuning: B-E-A-D-G


Verse 1:
G|-------------------------------|
D|-------------------------------|
A|-------------------------------|
E|--------2-2-2-2----------------|
B|--3-3-3---------1-1-1-0-0-0-0--| (x8)


Pre-Chorus:
G|------------------------------------------------------------------------------|
D|--2-2-2-2---------------------------------------------------------------------|
A|---------------------------------------2---------------------------------2----|
E|----------0--0-0-2-2-2-3-3-3-2-2-2-0-3---0--0--0-0-2-2-2-3-3-3-2-2-2-0-3---0--|
B|------------------------------------------------------------------------------|

G|-----------------------------------------------------------|
D|-----------------------------------------------------------|
A|----------------------------2------------------------------|
E|--0-0-2-2-2-3-3-3-2-2-2-0-3---0--0--0-0-2-2-2-3-3-3-2-2-2--|
B|-----------------------------------------------------------|


Chorus:
G|-----------------------------|
D|-----------------------------|
A|-----------------------------|
E|--5--3-2-3--5-3--2-3-5-3--2--|
B|-----------------------------| (x8)
[ Tab from: http://www.guitartabs.cc/tabs/0-9/311/electricity_btab_ver_3.html ]
G|------------------------|
D|--------5---------------|
A|--7--7--5--3--2-0-------|
E|-------------------3-2--|
B|------------------------|


Verse 2:
G|-------------------------------|
D|-------------------------------|
A|-------------------------------|
E|--------2-2-2-2----------------|
B|--3-3-3---------1-1-1-0-0-0-0--| (x8)


Pre-Chorus:
G|------------------------------------------------------------------------------|
D|--2-2-2-2---------------------------------------------------------------------|
A|---------------------------------------2---------------------------------2----|
E|----------0--0-0-2-2-2-3-3-3-2-2-2-0-3---0--0--0-0-2-2-2-3-3-3-2-2-2-0-3---0--|
B|------------------------------------------------------------------------------|

G|-----------------------------------------------------------|
D|-----------------------------------------------------------|
A|----------------------------2------------------------------|
E|--0-0-2-2-2-3-3-3-2-2-2-0-3---0--0--0-0-2-2-2-3-3-3-2-2-2--|
B|-----------------------------------------------------------|


Chorus/Outro:
G|-----------------------------|
D|-----------------------------|
A|-----------------------------|
E|--5--3-2-3--5-3--2-3-5-3--2--|
B|-----------------------------| (x4)

G|---------------------------------|
D|---------------------------------|
A|---------------------------------|
E|--5-5-3-2-3-3-5-3-3-2-3-5-3-3-2--|
B|---------------------------------| (x4)

G|-----------|
D|-----------|
A|-----------|
E|--0~----0--|
B|-----------|