311 - Down Chords & Tabs

 

Down Chords & Tabs

311 Chords & Tabs

Version: 6 Type: Tab 0 ratings
1 star 2 stars 3 stars 4 stars 5 stars
comments

Down Tab

   
Intro
    G A           G     F#    G
E|---------------------------------------------------------
B|---------------------------------------------------------
G|---------------------------------------------------------
D|--5-7-7-7-7-*-*-5-*-*-4-*-*-5-*-*------------------------
A|--5-7-7-7-7-*-*-5-*-*-4-*-*-5-*-*------------------------
E|--3-5-5-5-5-*-*-3-*-*-2-*-*-3-*-*------------------------
  reapeat a bunch of times   \
                   This is Also the verse


Chorus

   E               G#    F# 
e|-----------------------------------
B|-----------------------------------
G|-----------------------------------
D|-2-2-2-2-2-2-2-2-6-6-6-4-4-4-4-4---
A|-2-2-2-2-2-2-2-2-6-6-6-4-4-4-4-4---
E|-0-0-0-0-0-0-0-0-4-4-4-2-2-2-2-2---
i dont know the interlude          \
                      I think you play this
[ Tab from: http://www.guitartabs.cc/tabs/0-9/311/down_tab_ver_6.html ]
Comments