311 - Down South Chords & Tabs

 

Down South Chords & Tabs

311 Chords & Tabs

Version: 1 Type: Tab 0 ratings
1 star 2 stars 3 stars 4 stars 5 stars
comments

Down South Tab

   
'Down South'
Performed by 311
From the album "Unity" on What Have You? Records
Music by:  N. Hexum, C. Sexton, M. Watkins & T. Mahoney
Lyrics by:  N. Hexum, C. Sexton, M. Watkins & T. Mahoney
(c) 1991 Allegiance Music/Hydroponic Music BMI
---------------
Tabbed by: Michael Slusarz (slusarz@chromosome.colorado.edu)
The 311 Guitar Archive -- http://chromosome.colorado.edu/311archive/


Intro/Riff 1 (Clean):
=====================
   A           Asus2 Asus4 Asus2 A           Asus4    Asus2
1:-0--0-0-0-0--0-0---0-0---0-----0--0-0-0-0--0-0-0-0--0-|
2:-2--2-2-2-2--0-0---3-3---0-----2--2-2-2-2--3-3-3-3--0-|
3:-2--2-2-2-2--2-2---2-2---2-----2--2-2-2-2--2-2-2-2--2-|
4:-2--2-2-2-2--2-2---2-2---2-----2--2-2-2-2--2-2-2-2--2-|
5:-0--0-0-0-0--0-0---0-0---0-----0--0-0-0-0--0-0-0-0--0-|
6:------------------------------------------------------|

Verse (Clean):
==============
   A   D   E   A   D   E   A   D   E   A   E   D  Bm7
1:-0---2---0---0---2-------0---2---0---0---0---2--2-|
2:-2---3---0---2---3-------2---3---0---2---0---3--0-|
3:-2---2---1---2---2---1---2---2---1---2---1---2--2-|
4:-2---0---2---2---0---2---2---0---2---2---2---0--0-|
5:-0-----------0-------2---0-----------0------------|
6:---------------------0----------------------------|
[ Tab from: http://www.guitartabs.cc/tabs/0-9/311/down_south_tab.html ]
Pre-Chorus (Clean):
===================
   Bm       C#m      D        E
1:-2--2-2---4--4-4--------------------|
2:-3--3-3---5--5-5---7--7-7---9--9--9-|
3:-4--4-4---6--6-6---7--7-7---9--9--9-|
4:-4--4-4---6--6-6---7--7-7---9--9--9-|
5:-2--2-2---4--4-4---5--5-5---7--7--7-|
6:------------------------------------|

Chorus (w/Distortion):
======================
   F#5-->E6/9                     A5  Ab5 F#5 E6/9
1:----------------------------------------------|
2:----------------------------------------------|
3:----------------------------------------------|
4:-4-4-4-4--4-4-4-4-4-4--4-4-4-4--7---6---4---4-|
5:-4-4-4-4--4-4-4-4-4-4--4-4-4-4--7---6---4---4-|
6:-2-2-0-2--2-2-0-2-0-2--2-2-0-2--5---4---2---0-|

Chorus - Ending (w/Distortion):
===============================
   F#5 E5
1:-------|
2:-------|
3:-------|
4:-4---2-|
5:-4---2-|
6:-2---0-|

Bridge 1 (w/Distortion):
========================
   F#5      F#5/E F#5 N.C.   F#5      F#5/E F#5 N.C.
1:----------------------------------------------------|
2:----------------------------------------------------|
3:----------------------------------------------------|
4:-4-4-4-4----4---4----------4-4-4-4----4---4---4-----|
5:-4-4-4-4----4---4---4-2-3--4-4-4-4----4---4---4-2-3-|
6:-2-2-2-2----0---2---2-0-1--2-2-2-2----0---2---2-0-1-|

   F#5      F#5/E F#5 N.C.   F#5   N.C.
1:-------------------------------------------------|
2:-------------------------------------------------|
3:---------------------------------11-9------------|
4:-4-4-4-4----4---4----------4//--------11-9-------|
5:-4-4-4-4----4---4---4-2-3--4//-------------12----|
6:-2-2-2-2----0---2---2-0-1--2//----------------12-|

Bridge 2 (Clean):
=================
   F#5          D6
1:-9--9--9--9---7--7--7--7-|
2:-7--7--7--7---7--7--7--7-|
3:-6--6--6--6---7--7--7--7-|
4:-------------------------|
5:-------------------------|
6:-------------------------|
Comments