311 - Don't Tread On Me Chords & Tabs

 

Don't Tread On Me Chords & Tabs

311 Chords & Tabs

Version: 1 Type: Tab 4 ratings
1 star 2 stars 3 stars 4 stars 5 stars
comments

Don't Tread On Me Tab

   


311
Don't Tread on Me


intro                   
GTR.1
---------------------------------------------------------------------------
-----------------------5---------------------------------------------------
-5~-----9-------------7---7-5-----------5-2---5-2---------4-5----4-5/------
-7~---7---10-7/5~----5--------7/3~----3-----3-----3-2~--2------2-----------
-7~------------------------------------------------------------------------
-5~------------------------------------------------------------------------

GTR.2
 Am               G               Fmaj
------------------------------------------------------0------3-3-----------
------------------3~--------------1~------------------0------3-3----------
-5~---------------4~--------------2~------------------1~-1---4-4---------
-7~---------------5~--------------3~------------------2~-2---5-5--------
-7~---------------5~--------------3~------------------2~-2---5-5-------
-5~---------------3~--------------1~------------------0--0---3-3------


verse
GTR.1
[ Tab from: http://www.guitartabs.cc/tabs/0-9/311/dont_tread_on_me_tab.html ]
--8--8--8--8--7--7--7--7--5--5--5--5--8--8--8--8---------
--8--8--8--8--8--8--8--8--5--5--5--5--8--8--8--8--------
--9--9--9--9--9--9--9--9--5--5--5--5--9--9--9--9-------
------------------------------------------------------
-----------------------------------------------------
----------------------------------------------------


--5--5--5--5--3--3--3--3---1--1--1--1p0--0--0---3--3---
--5--5--5--5--3--3--3--3---1--1--1--1p0--0--0---3--3---
--5--5--5--5--4--4--4--4---2--2--2--2p0--1--1---4--4---
-----------------------------------------2--2---5--5---
-----------------------------------------2--2---5--5---
-----------------------------------------0--0---3--3---

Chorus
GTR.1
--------------------------------------------------------------------------
--------------------------------------------------------------------------
-9--7--5--4---------------------------------------------------------------
-9--7--5--4----7-7--5--7-7--3--3-3--5-------------------------------------
-7--5--3--2----7-7--5--7-7--3--3-3--5-------------------------------------
---------------5-5--3--5-5--1--1-1--3----0--/7^p0--0/7^p0--0/7^p0--0/7~---

Bridge
GTR.1
----------------------
----------------------
--6--delay------------
---7-delay------------
----------------------
----------------------

That is all the parts to the song, just repeat .


Z$
Comments