311 - Dont Dwell Chords & Tabs

 

Dont Dwell Chords & Tabs

311 Chords & Tabs

Version: 1 Type: Bass Tab

Dont Dwell Bass Tab

   
Song: Don’t Dwell
Band: 311
Album: Evolver
Tabbed By: Alex Harford (Kick Me)
e-mail: rage_machine1516@yahoo.com

Tuning: Standard (G D A E)


Intro: (x4)
G|------------------------------------------------------------------------|
D|--------9----------9---------7---7---------9----------9---------10---10-|
A|-9h10-x---10(p9)-x---10--------x----9h10-x---10(p9)-x---10---------x----|
E|------------------------9h10-------------------------------9h10---------|


Verse:
G|------------------------------------------------------------------------|
D|--------9----------9---------7---7---------9----------9---------10---10-| x2
A|-9h10-x---10(p9)-x---10--------x----9h10-x---10(p9)-x---10---------x----|
E|------------------------9h10-------------------------------9h10---------|

G|---------------------------------------|
D|---------------------------------------| x2
A|--------12-10(p9)---12-10------12-x-12-|
E|-9h10-x-----------x-------9h10---------|

G|------------------------------------------------------------------------|
D|--------9----------9---------7---7---------9----------9---------10---10-|
A|-9h10-x---10(p9)-x---10--------x----9h10-x---10(p9)-x---10---------x----|
E|------------------------9h10-------------------------------9h10---------|

G|------------------------------------------------------------------------|
D|--------------------------------------------------------------9---------|
A|--------12-10(p9)---12-10------12-x-12---------12-10(p9)---12-----------|
E|-9h10-x-----------x-------9h10----------9h10-x-----------x--------------|


Pre Chorus:
G|------------------------------------------|
D|--10--10-----10-------12----12----12--12--|
A|------------------------------------------|
E|---------8-8----8-8-8----10----10---------|


Chorus:
G|----------------------------------------------|
D|-----------------7--/9--7---------------------|
A|--7--7---7--10-7----------10-10--12-10-12-----|
E|-------7--------------------------------------|

G|-----------8----------------------------------|
D|---------8---8-----------------------8--------|
A|------10--------10----------10----10---10-----|
E|--11---------------11----11----11---------11--|


Verse:
G|------------------------------------------------------------------------|
D|--------9----------9---------7---7---------9----------9---------10---10-| x4
A|-9h10-x---10(p9)-x---10--------x----9h10-x---10(p9)-x---10---------x----|
E|------------------------9h10-------------------------------9h10---------|
[ Tab from: http://www.guitartabs.cc/tabs/0-9/311/dont_dwell_btab.html ]
G|---------------------------------------|
D|---------------------------------------|  x2
A|--------12-10(p9)---12-10------12-x-12-|
E|-9h10-x-----------x-------9h10---------|

G|------------------------------------------------------------------------|
D|--------9----------9---------7---7---------9----------9---------10---10-|
A|-9h10-x---10(p9)-x---10--------x----9h10-x---10(p9)-x---10---------x----|
E|------------------------9h10-------------------------------9h10---------|

G|------------------------------------------------------------------------|
D|--------------------------------------------------------------9---------|
A|--------12-10(p9)---12-10------12-x-12---------12-10(p9)---12-----------|
E|-9h10-x-----------x-------9h10----------9h10-x-----------x--------------|


Pre Chorus:
G|------------------------------------------|
D|--10--10-----10-------12----12----12--12--|
A|------------------------------------------|
E|---------8-8----8-8-8----10----10---------|


Chorus:
G|----------------------------------------------|
D|-----------------7--/9--7---------------------|
A|--7--7---7--10-7----------10-10--12-10-12-----|
E|-------7--------------------------------------|

G|-----------8----------------------------------|
D|---------8---8-----------------------8--------|
A|------10--------10----------10----10---10-----|
E|--11---------------11----11----11---------11--|


Verse:
G|------------------------------------------------------------------------|
D|--------9----------9---------7---7---------9----------9---------10---10-| x2
A|-9h10-x---10(p9)-x---10--------x----9h10-x---10(p9)-x---10---------x----|
E|------------------------9h10-------------------------------9h10---------|


Bridge:
G|------------------------------|
D|----------7—-7--9--9--10--10--|  x3
A|--10--10----------------------|
E|------------------------------|

G|--------9-------/9----9------------------------|
D|-----10---10-10----10---10---------------------|
A|---------------------------------8-10-8-10--10-|
E|--8------------------------8-8-8---------------|

Wait till the drum solo stops then...


Outro:
G|------------------------------|
D|----------7—-7--9--9--10--10--|  x3
A|--10--10----------------------|
E|------------------------------|
                                 Let the last note ring.
G|-----------------------------------------------------|
D|-----------------------------------------------------|
A|----10-12---10-12-10-12----8-10-12-8-10-8-10—-10~~~~-|
E|--8-------8--------------8---------------------------|

Thanks for checking out my tab, rate and comment if it helped!