311 - Do You Right Chords & Tabs

 

Do You Right Chords & Tabs

311 Chords & Tabs

Version: 1 Type: Tab 0 ratings
1 star 2 stars 3 stars 4 stars 5 stars
comments

Do You Right Tab

   
-------------------------------------------------------------------------------
			     DO YOU RIGHT - 311
-------------------------------------------------------------------------------
Tabbed by:  RUSTDOGG666
Email:  motionlessz@cox.net

Tuning:  Standard  (E, A, D, G, B, E)

Intro:

e|---------------------|
B|---------------------|
G|---------------------|
D|---------------------|
A|---------------------|
E|--0-4-5-0-4-5-0-4-5--|

Verse 1 and Verse 2 and Verse 3:

      E  D  E  D
e|----7--5--7--5----|
B|----9--7--9--7----|
G|----9--7--9--7----|
D|----9--7--9--7----|
A|----7--5--7--5----|
E|----7--5--7--5----|

Prechorus:

      E  F  E  F  E  F  E  F  F  F  F  F
e|----0--1--0--1--0--1--0--1--1--1--1--1----|
B|----0--1--0--1--0--1--0--1--1--1--1--1----|
G|----1--2--1--2--1--2--1--2--2--2--2--2----|
D|----2--3--2--3--2--3--2--3--3--3--3--3----|
A|----2--3--2--3--2--3--2--3--3--3--3--3----|
E|----0--1--0--1--0--1--0--1--1--1--1--1----|

Chorus:
[ Tab from: http://www.guitartabs.cc/tabs/0-9/311/do_you_right_tab.html ]
      A  D  E  D    
e|----5--5--7--5----|
B|----5--7--9--7----|
G|----6--7--9--7----|
D|----7--7--9--7----|
A|----7--5--7--5----|
E|----5--5--7--5----|

Solo:

e|--5-3-2-0--------------------|
B|----------3-2-0-2-3-2-0------|
G|------------------------2-2--|
D|-----------------------------|
A|-----------------------------|
E|-----------------------------|

Slide:
Start at fret 2, slide up to fret 12, then slide back down to fret 2.
Thats the best way to explain this tab below.

e|--------------|
B|--------------|
G|--------------|
D|--------------|
A|--------------|
E|----2/12\2----|

| /  slide up
| \  slide down
| h  hammer-on
| p  pull-off
| ~  vibrato
| +  harmonic
| x  Mute note

===============================================================================

Sequence:
Intro(x8)-Verse 1-Prechorus-Verse 2-Prechorus-Intro(x4)-Short Pause-Chorus(x8)-
Solo-Slide-Verse 3-Prechorus-Intro(x4)-Short Pause-Chorus(x8)-Bridge[Drums And
Vocals Only-Chorus(x4)]-Chorus(x4)-Solo-Slide-Intro(x4)(Slower).

Get the 311 Music CD and jam to this track. It is really easy. All you have to do]
is listen to the song and you'll get the idea of what I'm telling you. They may
have added some soloing to the chorus right after the short pause, but I didn't
include that, because the chords can take its place. So I didn't bother to figure
out that part if there was any.  Enjoy! 311 Rocks!!
Comments