311 - Do You Right Chords & Tabs

 

Do You Right Chords & Tabs

311 Chords & Tabs

Version: 2 Type: Bass Tab 0 ratings
1 star 2 stars 3 stars 4 stars 5 stars
comments

Do You Right Bass Tab

   
'Do You Right' -- Bass Tab
Performed by 311
From the album "Music" on Capricorn Records
Music by:  N. Hexum & C. Sexton
Lyrics by:  N. Hexum & D. Martinez
(c) 1993 Allegiance Music/Hydroponic Music BMI
---------------
Tabbed by: Kaleb Jalil (kj@lakemartin.net)
           Jeremy Daw (summit@rideau.net)
           Paul Jonak (pjonak@iastate.edu)
311 Guitar Archive - http://chromosome.colorado.edu/311archive/Home.html

[Version 1:]

This is the same as the guitar part at the beginning (Riff 1):

1:---------------------------------------
2:---------------------------------------
3:---------------------------------------
4:-0--4--5---0--4--5---0--4--5---0--4--5-


During the verses the bass plays Riff 1 but adds a little piece at the
end:

1:---------------------------------------------------------------------
2:---------------------------------------------------------------------
3:-------------------------------------------7-7-7-7-7-7---7-7-7-7-7-7-
4:-0-4-5--0-4-5--0-4-5--0-4-5--0-4-5--0-4-5----------------------------


During the pre-chorus: "I'm free as I stare at the sea"

1:----2--4----2--4-----2--5---2--5---2--4---2--4---5--3--2-------
2:-2--------2-------3-------3------2------2------3----------5--3-
3:---------------------------------------------------------------
4:---------------------------------------------------------------

1:----2--4----2--4-----2--5---2--5---2--4---2--4------------------
2:-2--------2-------3-------3------2------2------3----------------
3:----------------------------------------------------------------
4:--------------------------------------------------1--1--1--1--1-

Verse riff:

Pre-chorus:

Chorus:
1:---------------------------------------
2:---------------------------------------
3:-----------5--555-----7--777-----5-555-
4:-5--555--------------------------------

Verse riff:

Pre-chorus:

Riff 1:

Chorus:

The rest is just repeating certain riffs. 
The song ends w/ Riff 1 (beginning of song).


[Version 2:]

Intro:
======
 
G:---------------------
D:---------------------
A:---------------------
E:-0-4-5-0-4-5-0-4-5-0-
B:---------------------

Main Riff:
==========

G:-------------------------------------------------
D:-------------------------------------------------
A:-------------------------------------------------
E:-0-4-5-0-4-5-0-4-5-0-4-5-0-4-5-0-4-5-0-4-5-4-5-4-
B:-------------------------------------------------

G:-----------------
D:-----------------
A:-----------------
E:--0-4-5-4-5-4///-
B:-----------------

Pre-Chorus A:
=============

G:---1--4----1--4----2--5----2--5----1--4----1--4-
D:-2-------2-------3-------3-------2-------2------
A:------------------------------------------------
E:------------------------------------------------
B:------------------------------------------------
[ Tab from: http://www.guitartabs.cc/tabs/0-9/311/do_you_right_btab_ver_2.html ]
Pre-Chorus B:
=============

G:---5-4-2-0---
D:-3---------3-
A:-------------
E:-------------
B:-------------

Pre-Chorus C:
=============

G:------------
D:-3-3-3-3-3--
A:------------
E:------------
B:------------

The pattern for the Pre-Chorus goes a, b, a, c.

Chorus A:
=========

G:-------------------------------
D:-------------------------------
A:-0--7-0------------------------
E:------------------0--7-0-------
B:----------3--3------------3--3-

Chorus B:
=========

G:--------------------------------------------------------
D:---------------------7-------------9-------------7------
A:-0-0-0-7-0--0-5-5--5---5--5-7-7--7---7--7-5-5--5---5--5-
E:--------------------------------------------------------
B:--------------------------------------------------------

Fill 1:
=======

G:---------------------------
D:---------7-4-6-----4-------
A:-----4-5-------7-4---5-----
E:-5-5-------------------7-5-
B:---------------------------

Break:
======

G:--------------------------------------------
D:--------------------------------------------
A:-0----5----7----5----0----5----7-77---5-555-
E:--------------------------------------------
B:--------------------------------------------


[Version 3:]

(A.)                        (Av.)  (with ending variant)

G----------------------------|-------------------
D----------------------------|-------------------
A----------------------------|--7777777---7777777
E--0-4-5--0-4-5--0-4-5--0-4-5|-------------------

(B.)

G----2-4---2-4---2-5---2-5---2-4---2-4---5-3-2----
D--2-----2-----3-----3-----2-----2-----3-------5-3
A-------------------------------------------------
E-------------------------------------------------

G----2-4---2-4---2-5---2-5---2-4---2-4-----------
D--2-----2-----3-----3-----2-----2-----3---------
A------------------------------------------------
E----------------------------------------1-1-1-11

(C.)

G--------------------------------------------
D---------------5----------7----------5------
A----5--------5---5--55--7---7--77--5---5--55
E--5---5--55---------------------------------

(D.)

G-------------------------------
D-------------------------------
A--2-4-5--2-5-4--5-4-2--5-4-2--0
E-------------------------------

(E.)

G-------------------------------------------------------
D-------------------------------------------------------
A----------------5-5--5-5-5--5-7-7--7-7-7-7-5-5--5-5-5-5
E--5-5--5-5-5--5----------------------------------------

(Es.) (simplified)

G---------
D---------
A----5-7-5
E--5------


Song Order:

A.
Av.
B.
Av.
B.
A.
C.
D.
Av.
B.
A.
E.
C.
Es.
E.
D.
A.


== Last Updated:  December 1, 1997 ==
Comments