311 - Creature Feature Into Chords & Tabs

 

Creature Feature Into Chords & Tabs

311 Chords & Tabs

Version: 2 Type: Bass Tab 0 ratings
1 star 2 stars 3 stars 4 stars 5 stars
comments

Creature Feature Into Bass Tab

G|---9------------------------------------|
D|-7-----11----9---10-9--7----------------|
A|-----9---9-7---7---------9--------------|
E|----------------------------------------|
[ Tab from: http://www.guitartabs.cc/tabs/0-9/311/creature_feature_into_btab_ver_2.html ]
G|---9------------------------------------|
D|-7-----11----9---10-9--7----------------|
A|-----9---9-7---7---------9--7-----------|
E|----------------------------------------|

This is the intro I think there is another way with a five
string but this is with a four string.It also has some effects you
play...i dont think its the fretless because i tried a four string
fretless but it may be ...you repeat it 6 times before it goes to the
chorus. There ya go

                            ~~~~Later~~~~
Comments