311 - Crack The Code Chords & Tabs

 

Crack The Code Chords & Tabs

311 Chords & Tabs

Version: 1 Type: Bass Tab 0 ratings
1 star 2 stars 3 stars 4 stars 5 stars
comments

Crack The Code Bass Tab

   
song: Crack The Code 
artist: 311
album: Evolver
tabbed by: Mallo 
e-mail: shatteredseals@hotmail.com\

h- Hammer on
t- Triplet

Standard 4 - G, D, A, E

  This is my first attempt at the 311 bass line and I think I came pretty 
close but all I need is the 5th string and I may be able to make it complete.
With the transition to the 2nd riff I have yet to figure it out, but I put it
on here to show you that there is one.
[ Tab from: http://www.guitartabs.cc/tabs/0-9/311/crack_the_code_btab.html ]
main riff in verse and intro:						Transition to 2nd riff
G: --------------------------------------------------------------------||---------------------
D: ----0h5--9---7-5-----0h5--7---5-3------0h5--7---5-3-----------------||---------------------
A: --------------------------------------------------------3-------3---||---------------------
E: -3----------------3----------------3----------------0-3---3-3-3---0-||---------------------

verse 2nd riff:
G: -----------------------------------------------------------------
D: -----------------------------------------------------------------
A: -000------000------000------000------000------000----------------
E: ---------------------------------0-----------------0---111111111-
    ttt      ttt      ttt      ttt      ttt	 ttt
chrous:									Ending
G: -------------------------------------------------------------------------||------
D: -------------------------------------------------------------------------||------
A: ----------------------------------------------------------33333-5555555--||------
E: -11--11--11--11--11--11--11--11--11--11--11--11--3333333-----------------||--3r--
Comments