311 - Come Original Chords & Tabs

 

Come Original Chords & Tabs

311 Chords & Tabs

Version: 2 Type: Bass Tab

Come Original Bass Tab

This is Come Original by 311. Sweet bass line. Hope its right, my first.


Standard tuning                             

Intro                           X3 
G|-----------|-------------------|
D|-----------|-------------------|
A|--5----5---|-5-4-2-------------| 
E|-----------|-------5-4-5-4-2-0-|

|----------|-------------------|
|----------|-------------------|
|--5---5---|-5-4-2-----------2-| 
|----------|-------5-4-0-2-4---|

Chorus/verse thingy                  X7  
|----------|---------|---------|---------|
|----------|---------|---------|---------|
|----------|---------|---------|---------|
|-3-3-3-3--|-7-7-7-7-|-5-5-5-5-|-5-5-4-4-|

|---------|---------|----------|---------|
|---------|---------|----------|---------|
|---------|---------|----------|---------|
|-3-3-3-3-|-7-7-7-7-|-7---5----|-3---2---|
[ Tab from: http://www.guitartabs.cc/tabs/0-9/311/come_original_btab_ver_2.html ]
Slap Part
|------------------0-|
|---2----------------|
|-------5--7---0/2---|
|-0------------------|


Bridge thing (After, "And they like to dance")
|-------------|------------|
|-------------|------------|
|----2--5-----|----2----0--|
|-0--------5--|-3-----2----|


Quiet part thing
|-------|-----------|-----------|-------|--------|
|-------|-----------|-----------|-------|--------|
|-------|-----------|-----------|-------|--------|
|-3-----|-7----5----|-5----3----|-3-----|-7----5-|
Goes right into chorus from here. I'm not even sure if
the bass actually plays this part but here it is anyway.


Order-

Intro
Chorus/verse
Slap
Chorus/verse (plays main part 3 times then the end thing)
Slap
Bridge
Slap
Quiet part
Chorus

Just listen to the song for the rythms. The slap part might be wrong, but w/e, peace out. have fun