311 - Come Original Chords & Tabs

 

Come Original Chords & Tabs

311 Chords & Tabs

Version: 1 Type: Bass Tab 0 ratings
1 star 2 stars 3 stars 4 stars 5 stars
comments

Come Original Bass Tab

'Come Original' - Bass Tab 
Performed by 311 
From the album "Soundsystem" on Capricorn Records 
Music by:  N. Hexum & C. Sexton (??) 
Lyrics by:  N. Hexum & D. Martinez (??) 
(c) 1999 Hydroponic Music BMI 
--------------- 
Tabbed by: Evin Gibson (phoney311@aol.com) 
Additions/Corrections by: Ryan Merton (phylus@pagehome.com) 
Intro: 
====== 

G:-------------------7-6-4--------------------------------7-6-4------------ 
D:-------------------------7-6-7-6-4----------------------------7-6--4-4-6- 
A:-0-0-0-0--0-0-0-0------------------7--0-0-0-0--0-0-0-0------------7------ 
E:------------------------------------------------------------------------- 
B:------------------------------------------------------------------------- 

Chorus: 
======= 

G:-------------------------------------------- 
D:-------------------------------------------- 
A:-------------2-2--2-2-2--------------------- 
E:-3-3--3-3-3--------------5-5--5-5-5-5-5-4-4- 
B:-------------------------------------------- 
[ Tab from: http://www.guitartabs.cc/tabs/0-9/311/come_original_btab.html ]
Verse (Slap Bass): 
================== 

[Key:] 
  S = Slap 
  P = Pop 
  x = Muted note (Either slap mute or palm mute) 

   S SPPSPSPS  PPS 
G:-------------x--- 
D:-----x-x-x0h2-2-- 
A:----x------------   [Play this...] 
E:-0x0--x-x------0- 
B:----------------- 
  

   S SPPSPSPS  P S 
G:-------------x--- 
D:-----x-x-x0h2--x- 
A:----x----------x-   [then this... and repeat from top.] 
E:-0x0--x-x-------- 
B:----------------- 

Bridge 1: 
========= 

G:--------------------- 
D:--------------------- 
A:---2--5-------2----0- 
E:-0------5---3----2--- 
B:--------------------- 

Bridge 2: 
========= 

G:--------------------- 
D:-7-7------6-6------5- 
A:-----7-7------6-6---- 
E:--------------------- 
B:--------------------- 
  

Song Structure: 
=============== 
---> Play Intro (x1) 
---> Play Chorus (x8) 
---> Play Verse (w/o Guitar) (x4) 
---> Play Verse (x8) 
---> Play Chorus (x4) 
---> Play Verse (w/o Guitar) (x4) 
---> Play Verse (x8) 
---> Play Bridge 1 (x4) 
---> Play Verse (x8) 
---> Play Bridge 2 (x4) 
---> Play Chorus (x4) 

Comments