311 - Cant Fade Me Chords & Tabs

 

Cant Fade Me Chords & Tabs

311 Chords & Tabs

Version: 2 Type: Tab 0 ratings
1 star 2 stars 3 stars 4 stars 5 stars
comments

Cant Fade Me Tab

Song:Can't Fade Me
Album: Soundsystem
Tabbed by: jodo311 a.k.a. writersblokparty


I've known this song for a while and i saw that the one on the site is wrong, so i 
i'd fix y'all up with a good one.

intro:dist.
e:------------------------------------|
B:------------------------------------|
G:------------------------------------|
D:------------------------------------|
A:-5-7-5-7---5-7-5-7--5-5-5-5--7--7-7-|
E:------------------------------------|
  {p.m.}     {no p.m.}


verse: distortion/octave
e:---------------------------------------------------------------|
B:---------------------------------------------------------------|
G:---------------------------------------------------------------|
D:--4p2---2------2--------4p2---2------2-------xx--xxx--xxx--xxx-|
A:------5---5--5---5-2--------5---5--5---5-2-5-xx--xxx--xxx--xxx-|
E:---------------------------------------------xx--xxx--xxx--xxx-|


verse(continued):dist./octave
e:--------------------------------|
B:--------------------------------|
G:--------------------------------|
D:--------------------------------|
A:-2-0-2-0-2-0-2-0---0-0-0-0--2-2-|
E:--------------------------------|

bridge:dist. only
e:------------------------------------------------------------------------|
B:---------------------------------5--------------------------------------|
G:--4--4-6-7-6-4---6-4---4-6-7-6-4---4-4---4-6-7-6---7-6-4-------4-6-4-6--|
D:-------------------------------------------------6--------6-4-----------|
A:------------------------------------------------------------------------|
E:------------------------------------------------------------------------|
[ Tab from: http://www.guitartabs.cc/tabs/0-9/311/cant_fade_me_tab_ver_2.html ]
then:
e:-----------|
B:-----------|
G:-----------|
D:-2--2-2----|
A:-----------|
E:-----------|

mellow part: clean, maybe some reverb/vibrato
e:--14--12--14--12--------------------------------------------------|
B:--12--12--12--12-----12--12-14-15-14-12----12--12-14-15-10-9------|
G:--13--11--13--11-----13--13-14-16-14-13----13--13-14-16-11-9------|
D:------------------------------------------------------------------|
A:------------------------------------------------------------------|
E:------------------------------------------------------------------|

fill:dist.
e:------|
B:------|
G:------|
D:------|
A:-2--2-|
E:-0--0-|

ending:dist./octave
e:-----------------------------------------------------------------------|
B:-----------------------------------------------------------------------|
G:-----------------------------------------------------------------------|
D:-----------------------------------------------------------------------|
A:-----------------------------------------------------------------------|
E:--0h2-3-3-3-3--0h2-3-3-3-3--0h2-3-3--3-3-3-2-3-2-3-2-------------------|

ending(continued):dist./octave
e:-----------------------------------------------------------------------|
B:-----------------------------------------------------------------------|
G:-----------------------------------------------------------------------|
D:-----------------------------------------------------------------------|
A:-2h4-5-5-5-5--2h4-5-5-5-5---2h4-5-5--5-5-5-4-5-4-5-4-------------------|
E:-----------------------------------------------------------------------|

There you have it. Please do enjoy. I know i like to rock out with this one at any time 
it is the schidt. Peace.
Comments