311 - Brodels Chords & Tabs

 

Brodels Chords & Tabs

311 Chords & Tabs

Version: 1 Type: Bass Tab 0 ratings
1 star 2 stars 3 stars 4 stars 5 stars
comments

Brodels Bass Tab

   
'Brodels' -- Bass Tab
Performed by 311
From the album "311" on Capricorn Records
Music by:  C. Sexton
Lyrics by:  N. Hexum and D. Martinez
(c) 1995 Allegiance Music/Hydroponic Music BMI
---------------
Tabbed by: Jeremy Daw (summit@rideau.net)
The 311 Guitar Archive -- http://chromosome.colorado.edu/311archive/Home.html


Riff 1a:
========

G:-----------------------------------------------------------
D:-----------------------------------------------------------
A:-----------------------------------------------------------
E:-----------------------------------------------------------
B:-0------2-----0------2-----0------2-----0------2----5----4-


Riff 1b:
========

G:------------------------------------------------------
D:------------------------------------------------------
A:----------------------------------------------------1-
E:------------------------------------------------------
B:-0------2-----0------2-----0------2-----0------2------


Riff 2:
=======

G:------------------------------------------------
D:------------------------------------------------
A:------------------------------------------0---2-
E:-3---2---3---2---3---3---2---3---2---3----------
B:------------------------------------------------


Riff 3a:
========

G:--------------------------------------------
D:--------------------------------------------
A:--------------------------------------------
E:-5-x-3-x-3-3-x-5-x-3--5-x-3-x-3-3--6---5--3-
B:--------------------------------------------


Riff 3b:
========
[ Tab from: http://www.guitartabs.cc/tabs/0-9/311/brodels_btab.html ]
G:-----------------------------------------
D:-----------------------------------------
A:-----------------------------------------
E:-5-x-3-x-3-3-x-5-x-3--5-x-3-x-3-3--3-3-2-
B:-----------------------------------------


Chorus a:
=========

G:-------------------------------------------
D:-------------------------------------------
A:-------------------------------------------
E:-1-1--3--5--6---5--3--7---0-0-0-0--2---x-1-
B:-------------------------------------------


Chorus b:
=========

G:-----------------------------------------
D:-----------------------------------------
A:-----------------------------------------
E:-1-1--3--5--6---5--3--7-7-7--5-5-5--3--2-
B:-----------------------------------------


Chorus c:
=========

G:---------------------------------------
D:---------------------------------------
A:---------------------------------------
E:-1-1--3--5--6---5--3---0--2-3---0--3-2-
B:---------------------------------------

The pattern for the Chorus is  a, b, a, c


Riff 4:
=======

G:------------------------------------------
D:------------------------------------------
A:------------------------------------------
E:------------------------------------------
B:-2-0-0-0---0-2-0-0---2-0-0-0---0--3--2--0-


Ending:
=======

G:--------------------------------------------------
D:--------------------------------------------------
A:--------------------------------------------------
E:--------------------------------------------------
B:-3---2----3----2----3----2-2-2--0-0-0--2----3---2-


== Last Updated:  September 16, 1997 ==
Comments