311 - Beautiful Disaster Chords & Tabs

 

Beautiful Disaster Chords & Tabs

311 Chords & Tabs

Version: 3 Type: Tab 0 ratings
1 star 2 stars 3 stars 4 stars 5 stars
comments

Beautiful Disaster Tab

   
Artist: 311
Song: Beautiful Disaster

Tabbed by:
Richard Dapice

Hey This is Just guitar one, I havent got around to tabbing two It will be up soon. 
I'm pretty sure this is almost perfect

Intro:
e----------------------------------------------------------
B----------------------------------------------------------
G----------------------------------------------------------
D----------------------------------------------------------
A--2-0-2-----------x7--2-------2---------------------------
E--------3-2-3-2-3-------3-2-3-----------------------------

e-2--222-3-2-0-2-0-----------0-0-0-2-0---2-3-5---7-5-3-----
B-------------------3--33-33-------------------------------
G----------------------------------------------------------
D----------------------------------------------------------
A----------------------------------------------------------
E----------------------------------------------------------

e-3-5-7-5-3-5-7-5-3-5-7-5-3-2---0-2-0----------0-0-0-2-0---
B-------------------------------------3--33-33-------------
G----------------------------------------------------------
D----------------------------------------------------------
A----------------------------------------------------------
E----------------------------------------------------------
[ Tab from: http://www.guitartabs.cc/tabs/0-9/311/beautiful_disaster_tab_ver_3.html ]
Riff: Stacato
    B5     A5     G5            E5         F#5       
e----------------------------------------------------------
B----------------------------------------------------------
G-4--4-4--2-2--5-5---55-5--2--2-2--2-2--4-4--4-4-4---------
D-4--4-4--2-2--5-5---55-5--2--2-2--2-2--4-4--4-4-4---------
A-2--2-2--0-0--3-3---33-3--0--0-0--0-0--2-2--2-2-2---------
E----------------------------------------------------------
Plays through out

e----------------------------------------------------------
B----------------------------------------------------------
G----------------------------------------------------------
D----------------------------------------------------------
A--2-0-2-----------x3--2-------2---------------------------
E--------3-2-3-2-3-------3-2-3-----------------------------

Riff: Stacato
    B5     A5     G5            E5         F#5       
e----------------------------------------------------------
B----------------------------------------------------------
G-4--4-4--2-2--5-5---55-5--2--2-2--2-2--4-4--4-4-4---------
D-4--4-4--2-2--5-5---55-5--2--2-2--2-2--4-4--4-4-4---------
A-2--2-2--0-0--3-3---33-3--0--0-0--0-0--2-2--2-2-2---------
E----------------------------------------------------------
Plays through out


Hey have fun email me if you have any ?? Stled247@msn.com
Comments