311 - Applied Science Chords & Tabs

 

Applied Science Chords & Tabs

311 Chords & Tabs

Version: 2 Type: Bass Tab 0 ratings
1 star 2 stars 3 stars 4 stars 5 stars
comments

Applied Science Bass Tab

'Applied Science' -- Bass Tab
Performed by 311
From the album "Grassroots" on Capricorn Records
Music by:  C. Sexton
Lyrics by:  N. Hexum and D. Martinez
(c) 1994 Allegiance Music/Hydroponic Music BMI
---------------
Tabbed by: Jeremy Daw (summit@rideau.net)
The 311 Guitar Archive -- http://chromosome.colorado.edu/311archive/Home.html


Riff 1:
=======

G:----------------------
D:----------------------
A:----------------------
E:-3-1--1-1-3-3-1-3-3-3-
B:----------------------


Riff 2:
=======

G:-----------------------------
D:-3--1-------1--------------1-
A:-------4--1-----------1h4----
E:----------------3--4---------
B:-----------------------------


Riff 3:
=======
[ Tab from: http://www.guitartabs.cc/tabs/0-9/311/applied_science_btab_ver_2.html ]
G:-----------------------
D:-----------------------
A:-----------------------
E:-2-2-2-2-2---1-1-1-1-1-
B:-----------------------


Riff 4:
=======

G:--------------------------------
D:--------------------------------
A:--------------------------------
E:-4-4--4-4-4-4-4--2-2--2-2-2-2-2-
B:--------------------------------


Riff 5:
=======
G:----------------------
D:----------------------
A:----------------------
E:-1--1-1--1-1-1-1--1-1-
B:----------------------


End Riff:
=========

G:----------------------------
D:----------------------------
A:--------------------------1-
E:-2-2-2-2-1-1-1-1-2-2-2-2--1-
B:----------------------------


== Last Updated:  September 25, 1997 ==
Comments