311 - Amber Chords & Tabs

 

Amber Chords & Tabs

311 Chords & Tabs

Version: 5 Type: Tab 0 ratings
1 star 2 stars 3 stars 4 stars 5 stars
comments

Amber Tab

intro
envelope affect (i think)

E-----------------------------------------------
B-------------------5---------------------------
G--------4--------5---5--------4------4---------
D--2/4-5---5--5-7--------2/4-5---5--5---5-------
A-----------------------------------------------
E-----------------------------------------------

solo
[ Tab from: http://www.guitartabs.cc/tabs/0-9/311/amber_tab_ver_5.html ]
E--6/-8-10-12-10-8-10-7---------6/-8-10-12-10-8-10-7-7-10-7-7-8-----------------
B------------------------3-3----------------------------------------------------
G--3--5--7--9--7-5--7-4--4-4-4--3--5--7--9--7-5--7-4-4--7-4-4-5-----------------
D----------------------------5--------------------------------------------------
A-------------------------------------------------------------------------------
E-------------------------------------------------------------------------------
                                                      
E-------------------------------------------------------------------------------
B-----------------------------------------6------5------------------------------
G-2-4-5-4-2/4--4-5-7-5-4-5--5-7--9-7-5-4----------------------------------------
D-3-5-7-5-3/5--5-7-9-7-5-7--7-9-10-9-7-5----------------------------------------
A-------------------------------------------------------------------------------
E-------------------------------------------------------------------------------

the part after the solo

E-8---10--12---12-15-12---------------------------------------------------------
B-8---10--12-12--------15--13---------------------------------------------------
G-9---10--12--------------------------------------------------------------------
D-10--12--14--------------------------------------------------------------------
A-10--12--14--------------------------------------------------------------------
E-8---10--12--------------------------------------------------------------------
Comments