311 - Amber Chords & Tabs

 

Amber Chords & Tabs

311 Chords & Tabs

Version: 3 Type: Tab 0 ratings
1 star 2 stars 3 stars 4 stars 5 stars
comments

Amber Tab

"AMBER"---311
tabbed by: jerry czarnecki
cool sounding song!!!!

E|-------------------------------------------|
B|-------------------------------------------|
G|------------------------------4------------|
D|-----2------3--------5---------------5-----|

E|----------------------------------------------------------
B|----------------------------------------------------------
G|-------------------------------5--------9---------5-------
D|-------5---------7---------------------------------------- 


E|----------------------------------------------|
B|----------------------------------------------|
G|------------------------------4---------------|
D|-----2------3--------5---------------5--------|

E|------------------------------------------------------| 
B|------------------------------------------------------| 
G|------------------4-----------------------------------|
D|--------5-----------------------5---------------------| 


Repeat these two line like 10 times....that is pretty much the whole song.


then theres:
[ Tab from: http://www.guitartabs.cc/tabs/0-9/311/amber_tab_ver_3.html ]
E|----------------------------------------------------------
B|-----1-------1--------3--------5-------3--------1---------

cont. on B|  3-------0------|                       

E|--0------0----0-------------------| 
B|--3------3----0-------------------|




E|---------------------------------------------------------
B|-----1-------1--------3--------5-------3--------1--------

cont on 
B|3-------0------|--0------3----0--------------                       

E|----------------------------| 
B|--0------3----0-------------|                         

Then at around 2:10 

e|-------------8--------10-------12-------------| 
B|-------------8--------10-------12-------------| 

e|-------8----10----15-----12-----10-----------------| 
B|-------8----10----15-----12-----10--------8--------| 
G|------------------------------------------9--------| 

This is a head start I guess

Thats all I got right now I did it at 2 in the morning because I couldn’t sleep so I 
pulled this off in a little bit.....I will get more but I wanted to send it because 
its not here yet........


Anyway let me know what you guys think.....thanks........
Dont mind adding or changing
Comments