311 - Amber Chords & Tabs

 

Amber Chords & Tabs

311 Chords & Tabs

Version: 2 Type: Tab 6 ratings
1 star 2 stars 3 stars 4 stars 5 stars
comments

Amber Tab

   
                              "Amber" by 311

Standard Tuning

Intro/Verse:
                                                            Cm6
e|---------------------------------------------|         |---3---|
b|---------------------5-----------------------|  Played |---5---|
g|---------4---------5---5--------4------4-----|         |---4---|
d|---2-3-5---5---5-7--------2-3-5---5--5---5---|  Twice  |---5---|
a|---------------------------------------------|         |---3---|
E|---------------------------------------------|         |---3---|


Chorus: (Played Over Intro Notes (Part A Only); Upward Ska Strokes)

     C  C   Am Am  C  C  C  C     
e|---3--3---5--5---3--3--3--3---|
b|---5--5---5--5---5--5--5--5---|  
g|---5--5---5--5---5--5--5--5---|              -Part A
d|------------------------------|  
a|------------------------------|
E|------------------------------|

     Am Am Am Am  C  C  C  C
e|---5--5--5--5---3--3--3--3---|
b|---5--5--5--5---5--5--5--5---|
g|---5--5--5--5---5--5--5--5---|               -Part B
d|-----------------------------|
a|-----------------------------|
E|-----------------------------|


Solo 1:

e|----------10-12-10----10--------------------10-12-10----10--------10--------|
b|---/13-13----------13----12----------/13-13----------13----12--12----12-12--|
g|-----------------------------7-7--------------------------------------------|
d|---------------------------------9------------------------------------------|
a|----------------------------------------------------------------------------|
E|----------------------------------------------------------------------------|
[ Tab from: http://www.guitartabs.cc/tabs/0-9/311/amber_tab_ver_2.html ]
e|-----------------------------------------------------------------------------------------------------|
b|-----------------------------------------------------------------------------------------------------|
g|---10~----5--7--9---7--5--5/7--7~---7--9---10--9---7--7/9---9~----9---10--12--10--9---7~---10~--9~---|
d|----------7--9--10--9--7--7/9--9~---9--10--12--10--9--9/10--10~---10--12--14--12--10--9~---9~---9~---|
a|-----------------------------------------------------------------------------------------------------|
E|-----------------------------------------------------------------------------------------------------|

Solo 2:

e|---8~---10~---12~------10-15-13-12-10/---0~---0~---0~---0~--3~---|
b|---5~---6~----8~----13-------------------5~---5~---5~---5~--5~---|
g|---5~---7~----9~-------------------------5~---4~---5~---4~--5~---|
d|-----------------------------------------7~---5~---7~---5~--5~---|
a|-----------------------------------------------------------------|
E|-----------------------------------------------------------------|

e|------------------------0~----------------------3---|
b|-----------0~---------0------------0~---------0-0---|
g|---------0----------0------------0----------0-------|
d|-------3----------2------------3----------2---------|
a|-----3----------2------------3----------2-----------|
E|---1----------0------------1----------0-------------|

Solo 3:

e|---------------------------------------------12~---|
b|------------------------------------10-12-13-------|
g|---12-10-9-9---9-10-12-9----9-10-12----------------|
d|---------------------------------------------------|
a|---------------------------------------------------|
E|---------------------------------------------------|


Intro/Verse
Chorus
  -Part A
  -Part A
  -Part B
  -Part B
  -Part A
  -Part A
Solo 1
Chorus
  -Part A
  -Part A
Solo 2
Chorus
  -Part A
  -Part A
  -Part B


  -Part B
Solo 3

Im my humble opinion, 311 isn't the greatest band.  In fact, I don't like them
very much at all.  Somehow, however, they've managed to write the greatest
song in the history of the world (also known as "Amber"), and I love it.  This 
tab is more or less perfect.  It should be perfect though, considering I've just 
blown a warm, sunny day, sitting at my computer for the last 4 hours.  Have fun
with this tab & feel free to send any feedback to Virii_116@Hotmail.com
[Poor Andy is Pimp]                             
                                                 -Sean Rippen-


Comments