311 - Amber Chords & Tabs

 

Amber Chords & Tabs

311 Chords & Tabs

Version: 2 Type: Bass Tab 0 ratings
1 star 2 stars 3 stars 4 stars 5 stars
comments

Amber Bass Tab

Tabber: Rodrigo Villanueva


Intro (00:11)    Verse (00:23)    Chorus (00:46)

G/------------------------------------------------------/
D/------------------------------------------------------/
A/------------------------------------------------------/
E/---8-8-8-8--8-8---5-5-5---0-0-0-0-0-0-3-0-------------/

Post Chorus (00:58)

G/--------------------------------------------------------------/
D/--------------------------------------------------------------/
A/---5-5--5-5--5-5--5-5--10-10-10-10-10-10-10-10----------------/
E/--------------------------------------------------------------/

Chorus (01:09)

G/------------------------------------------------------/
D/------------------------------------------------------/
A/------------------------------------------------------/
E/---8-8-8-8--8-8---5-5-5---0-0-0-0-0-0-3-0-------------/

Play Solo (same as verse, and play while guitar solo) (01:21)

Post Chorus (01:44)
[ Tab from: http://www.guitartabs.cc/tabs/0-9/311/amber_btab_ver_2.html ]
G/------------------------------------------------------------|---h1010h9--------/
D/------------------------------------------------------------|-------------------/
A/---5-5--5-5--5-5--5-5--10-10-10-10-10-10-10-10--|-------------------------------/
E/------------------------------------------------------------|-------------------/

Chorus (01:56)

Riff (02:08)

G/-------/
D/-------/
A/-------/
E/--8h0-/

Interlude (02:13)

G/-----------------------------------------------|
D/-----------------------------------------------|
A/--0-0-0--0--0--0-----0--------------------7----|
E/------------------0-------0-0-0--0--0--0----0--|

Interlude (02:25)

G/------------------------------------------------|
D/------------------------------------------------|
A/------------------------------------------------|
B/--1-1-1--1--1--1--1--1----0-0-0--0--0--0--0--0--|


G/--------------------------------------------------------------------/
D/--------------------------------------------------------------------/
A/--------------------------------------------------------------------/
B/--1-1-1--1--1--1--1--1----0-0-0--0--0--0--0--0---3---h15-15-15-15h0-/

Chorus (02:36)
Comments