311 - Amber Chords & Tabs

 

Amber Chords & Tabs

311 Chords & Tabs

Version: 1 Type: Bass Tab 0 ratings
1 star 2 stars 3 stars 4 stars 5 stars
comments

Amber Bass Tab

Song:Amber

Performed By:311

CD:From Chaos

Tabber:T4-TURBO

Main Riff:
G:---------------------------------
D:---------------------------------
A:3-3-3-3-3------------------------
E:----------5-5-5--------------3---
B:-----------------5-5-5-5-5-----5-

Riff 2:
G:---------------------------------
D:---------------------------------
A:---------------------------3---5-
E:--------------------3-3--3---3---
B:3-3-3-3-3-3-3-3-3-3--------------
[ Tab from: http://www.guitartabs.cc/tabs/0-9/311/amber_btab.html ]
Fill:
G:-----
D:-----
A:-----
E:-----
B:3\\0-

Bridge:
G:----------------------------------
D:----------------------------------
A:----------------------------------
E:5-5-5-5-5-5--0-5------------------
B:-----------------5-5-5-5-5-5--0-5-

Bridge2:
G:------------------------------------
D:------------------------------------
A:------------------------------------
E:3-3-3-3-3-3-3---3-0-0-0-0-0-0-0---0-
B:--------------3-----------------0---

Fill2:
G:----------
D:----------
A:----77777-
E:3-//------
B:----------
Comments