311 - All Mixed Up Chords & Tabs

 

All Mixed Up Chords & Tabs

311 Chords & Tabs

Version: 2 Type: Tab 1 rating
1 star 2 stars 3 stars 4 stars 5 stars
comments

All Mixed Up Tab

   
#----------------------------------PLEASE NOTE---------------------------------#
#This file is the author's own work and represents their interpretation of the #
#song. You may only use this file for private study, scholarship, or research. #
#------------------------------------------------------------------------------#


Date: Sun, 6 Apr 1997 17:45:12 -0400 (EDT)
From: Sonichew@aol.com

311-all mixed up
transcribed by zac murphy(murfbetheman@worldnet.att.com.)
[ Tab from: http://www.guitartabs.cc/tabs/0-9/311/all_mixed_up_tab_ver_2.html ]
intro
e----4--------5--------x---6---x---6---x---x---6---x---x---6---x---6---x---x
    (play 4x)
b----6--------6--------x---6---x---6---x---x---9---x---x---9---x---6---x---x
g----5--------5---------------------------------------------------------------
--
d----6--------7---------------------------------------------------------------
--
a----4--------5---------------------------------------------------------------
--
e-----------------------------------------------------------------------------
---
verse 1
e---4---------5-------x---6---x---6---x---x---6---x---x---6---x---6---x---x
 ( play 4x)
b---6---------6-------x---6---x---6---x---x---9---x---x---9---x---6---x---x
g---5---------5---------------------------------------------------------------
-
d---6---------7---------------------------------------------------------------
-
a---4---------5---------------------------------------------------------------
-
e-----------------------------------------------------------------------------
--
pre-chorus
e--------------------------------------------------- (  play 8x)
b---------------------------------------------------
g---------------------------------------------------
d---------------------------------------------------
a---8----8---0---3---6---6---6---6---6---6---6
e---6----6---0---1---4---4---4---4---4---4---4
chorus 1  (same tab as pre-chorus,but only played 4x)
verse 2 (same tab as verse 1)
pre chorus 2 (same tab as pre-chorus 2)
chorus 2 (same tab as chorus 1)
interlude
e---6---x---x---6---x---x---6---x---x---6---x---x---6---x---x---x  (play 4x)
b---6---x---x---6---x---x---6---x---x---6---x---x---6---x---x---x
g--------------------------------------------------------------------
d--------------------------------------------------------------------
a--------------------------------------------------------------------
e--------------------------------------------------------------------
bridge
e---6---------------6----4--------------4-----  (play 4x)
b---6---------------6----4--------------4-----
g---7---------------7----5--------------5-----
d-----------------------------------------------
a-----------------------------------------------
e-----------------------------------------------

e-------------------------------------------------  (play 2x)
b-------------------------------------------------
g-------------------------------------------------
d-------------------------------------------------
a---8---8---0---3---6---6---6---6---6---6---6
e---6---6---0---1---4---4---4---4---4---4---4
outro
e-------------------------------------------------  (play 4x)
b-------------------------------------------------
g-------------------------------------------------
d-------------------------------------------------
a---8---8---0---3---6---6---6---6---6---6---6
e---6---6---0---1---4---4---4---4---4---4---4
   


"All Mixed Up" by 311

Tabbed by Mike Sumerano (mjs196@psu.edu)
Send corrections or questions to the above e-mail address!

Riff #1 - Clean
e|-4---5---6-6-X6-X666-X6-|
B|-6---6---6-6-X6-X666-X6-|
G|-5---5------------------|
D|-6---7------------------|
A|-4---5------------------|
E|-4---5------------------|

Riff #2 - w/Distortion
e|----------------------------------|
B|----------------------------------|
G|----------------------------------|
D|-8-8--4/6666666778-8--4/666666677-|
A|-8-8--4/6666666778-8--4/666666677-|
E|-6-6--2/4444444556-6--2/444444455-|

Thats it!

Note: That funky thing they do in Riff #1 with the B & e strings is not
quite right, but you get the idea.  Listen to the song!!!



311: all mixed up
=================
Off of the lp "311"
Tabbed by matt neff

[part 1]:

   G#    a#    a# (type 2)
E--4-----5-----6--6--6--6-6-----
B--6-----6-----6--6--6--6-6-----
G--5-----5-----7--7--7--7-7----- 
Comments