311 - All Mixed Up Chords & Tabs

 

All Mixed Up Chords & Tabs

311 Chords & Tabs

Version: 1 Type: Tab 1 rating
1 star 2 stars 3 stars 4 stars 5 stars
comments

All Mixed Up Tab

hi im 12 yaers old and i have never written a tab before so bare with me on this one this is 311\'s all mixed up


-----------------------------------------------------------
---4----5---54-54-54-454-45-54-----------------------------
---4----5---54-54-54-454-45-54-----------------------------
---2----3---32-32-32-232-23-32-----------------------------
-----------------------------------------------------------
----------------------------------------------------------- repeat 10xs
         pm
right where that funky rap stuff starts you play this untill chorus
[ Tab from: http://www.guitartabs.cc/tabs/0-9/311/all_mixed_up_tab.html ]
------------------------------------------------------------
------------------------------------------------------------
3---3-------------------------------------------------------
3---3-------------------------------------------------------
1---1------5-5-5-5-4-4-5------------------------------------
-----------5-5-5-5-4-4-5------------------------------------
-----------3-3-3-3-2-2-3------------------------------------

at chorus repeat beginning then repaeat above agian a few times then 
fool around on the beginnig chords for a while close out with a ringing

---------
---------
---5-----
---5-----
---3-----

enjoy , questions or comments write me at messedup862@cs.com
Comments