311 - 311 Chords & Tabs

 

311 Chords & Tabs

311 Chords & Tabs

Version: 1 Type: Tab 0 ratings
1 star 2 stars 3 stars 4 stars 5 stars
comments

311 Tab

   
#-----------------------------PLEASE NOTE-------------------------------------#
#This OLGA file is the author's own work and represents their interpretation  #
#of the song. You may only use this file for private study, scholarship, or   #
#research. Remember to view this file in Courier, or other monospaced font.   #
#See http://www.olga.net/faq/ for more information.                           #
#-----------------------------------------------------------------------------#

Subject: 3/311/311_album.tab

"311 (album)" - Guitar Tab

Special Thanks to (in no particular order):
	Christopher Comeaux (Christopher.Comeaux@Eng.Auburn.EDU),
	Josh Tyson (jotyson@vt.edu).
	Graeme Hopkins (gthopkin@uiuc.edu)
	Gregory Parr (gparr@tiger.lsuiss.ocs.lsu.edu)
	Alan Maschek (jam9921@tam2000.tamu.edu)

Without their help, this project wouldn't be possible.

Table of Contents:
(1) Down  
(2) Random  
(3) Jackolantern's Weather  
(4) All Mixed Up 
(5) Hive  
(6) Guns (are for pussies) 
(7) Misdirected Hostility 
(8) Purpose 
(9) Loco
(10) Brodels
(11) Don't Stay Home  
(12) DLMD  
(13) Sweet  
(14) T & P Combo  

'Down'
Performed by 311
From the album "311" on Capricorn Records
Music by:  N. Hexum
Lyrics by:  N. Hexum & D. Martinez
(c) 1995 Allegiance Music/Hydroponic Music BMI
----------
Tabbed by: Michael Slusarz (slusarz@ucsu.colorado.edu)
Additions/Corrections by: Gregory Parr (gparr@tiger.lsuiss.ocs.lsu.edu)


Riff 1a (w/Distortion):
=======================
   A5       G5   F#5  G5
1:------------------------
2:------------------------
3:------------------------
4:-7-7-7-7--5-5--4-4--5-5-
5:-7-7-7-7--5-5--4-4--5-5-
6:-5-5-5-5--3-3--2-2--3-3-

Riff 1b (w/Distortion):
=======================
   A5       G5  F#5 G5  F#5
1:------------------------
2:------------------------
3:------------------------
4:-7-7-7-7--5---4---5---4-
5:-7-7-7-7--5---4---5---4-
6:-5-5-5-5--3---2---3---2-

Chorus (w/Distortion):
======================
   E5            G#5    F#5  G#5
1:-------------------------------
2:-------------------------------
3:-------------------------------
4:-2-2-2-2--2-2--6-6-6--4-4--6-6-
5:-2-2-2-2--2-2--6-6-6--4-4--6-6-
6:-0-0-0-0--0-0--4-4-4--2-2--4-4-

Bridge - Part A (w/Distortion):
===============================
  C#5/Ab E5          F#5 G5  G#5 E5
1:----------x-x-x-x-----------------x-x-x-x-
2:----------x-x-x-x-----------------x-x-x-x-
3:----------x-x-x-x-----------------x-x-x-x-
4:-6-----2--x-x-x-x--4///5///6---2--x-x-x-x-
5:-4-----2--x-x-x-x--4///5///6---2--x-x-x-x-
6:-4-----0--x-x-x-x--2///3///4---0--x-x-x-x-

Bridge - Part B (w/Distortion):
===============================
   E5                F#5 G5  G#5 A5
1:---------------------------------
2:---------------------------------
3:---------------------------------
4:-2-2-2-2-2-2-2-2---4---5---6---7-
5:-2-2-2-2-2-2-2-2---4---5---6---7-
6:-0-0-0-0-0-0-0-0---2---3---4---5-


Song Structure:
======================
---> Intro: Play Riff 1a w/Heavy distortion (x2)
---> Play Riff 1a over:
---> Play Riff 1b over:
---> Play Riff 1a over:
---> Play Riff 1b over:
---> Play Chorus over:
---> Play Riff 1a over:
---> Play Riff 1b over:
---> Play Chorus over:
---> Play Bridge - Part A (x4)
---> Play Bridge - Part B (x4)
---> Play Riff 1a over:
---> Play Riff 1b over:
---> Play Riff 1a over:
---> Play Riff 1b over:
---> Play Chorus over:
---> Play Chorus (quiet) over:
---> Play Chorus over:
---> Play Bridge - Part A (x4)
---> Play Bridge - Part A - Add an extra E5 whenever E5 is played (x4)
---> Play Bridge - Part B (x4)

'Random'
Performed by 311
From the album "311" on Capricorn Records
Music by:  C. Sexton
Lyrics by:  N. Hexum & D. Martinez
(c) 1995 Allegiance Music/Hydroponic Music BMI
----------
Tabbed by: Michael Slusarz (slusarz@ucsu.colorado.edu)
Additions/Corrections by: Gregory Parr (gparr@tiger.lsuiss.ocs.lsu.edu)


Verse - A (w/Distortion):
=========================
   Ab5     D#5         N.C.
1:-----------------------------
2:-----------------------------
3:-----------------------------
4:---------8-8-8---------------
5:-6-6-6-6-6-6-6-6///----------
6:-4-4-4-4-------------1h2-1h2-

Verse - B (w/Distortion):
=========================
   N.C.
1:------------------------
2:------------------------
3:------------------------
4:------------------------
5:-3------------3-3-4-6-4-
6:---4-3-1-3-3------------

Chorus (w/Heavy Distortion):
============================
   B5     E5     F#
1:---------------2-x-2-x-2-x-2-x-2-2-2-2-
2:---------------2-x-2-x-2-x-2-x-2-2-2-2-
3:-4-4--4--------3-x-3-x-3-x-3-x-3-3-3-3-
4:-4-4--4-2-2--2-4---4---4---4---4-4-4-4-
5:-2-2--2-2-2--2-4---4---4---4---4-4-4-4-
6:--------0-0--0-2---2---2---2---2-2-2-2-

Ending (w/Heavy Distortion):
============================
   F5 E5 F5 E5 F5 E5 F5    E5 F5 F#5
1:------------------------------------
2:------------------------------------
3:------------------------------------
4:-3--2--3--2--3--2--3--3--2--3--4--4-
5:-3--2--3--2--3--2--3--3--2--3--4--4-
6:-1--0--1--0--1--0--1--1--0--1--2--2-


Song Structure:
======================
---> Drum Intro
---> Play Verse - A over:
---> Play Verse - B over:
---> Play Verse - A over:
---> Play Verse - B over:
---> Play Chorus over:
---> Play Verse - A over:
---> Play Verse - B over:
---> Play Chorus over:
---> Play Ending over:
---> End with two F5's (133xxx)



'Jackolantern's Weather'
Performed by 311
From the album "311" on Capricorn Records
Music by:  C. Sexton
Lyrics by:  N. Hexum & D. Martinez
(c) 1995 Allegiance Music/Hydroponic Music BMI
----------
Tabbed by: Gregory Parr (gparr@tiger.lsuiss.ocs.lsu.edu)
           Christopher Comeaux (Christopher.Comeaux@Eng.Auburn.EDU)


Intro:
======
   G5(add C#)                             G5
1:-9-9-9-9--9-9-9-9--9-9--9-9-9-9--9-9-9--10-10-10-10-10-10-
2:-8-8-8-8--8-8-8-8--8-8--8-8-8-8--8-8-8---8--8--8--8--8--8-
3:-7-7-7-7--7-7-7-7--7-7--7-7-7-7--7-7-7---7--7--7--7--7--7-
4:----------------------------------------------------------
5:----------------------------------------------------------
6:----------------------------------------------------------

Riff 1:
=======
   N.C.
1:----------------------------
2:----------------------------
3:----------------------------
4:----------------------------
5:---------------5--3-3-3-2-0-
6:-3-5-3-5-3-5-3--------------

Riff 2:
=======
   N.C.
1:----------------------------------------
2:----------------------------------------
3:----------------------------------------
4:----------------------------------------
5:-5-0-5-7--5-0-5-7--5-0-5-0-5-7--5-0-5-7-
6:----------------------------------------

Chorus:
=======
   N.C.
1:--------------------------------------------
2:--------------------------------------------
3:--------------------------------------------
4:--------------------------------------------
5:-------1-1-2-4-2-4-2------------1-1-2-4-2-4-
6:-4-4-4---------------4-2--4-4-4-------------

Riff 3:
=======
   A5  N.C.        A5  N.C.        A5  N.C.        A5   (G6)  (A6)
1:------------------------------------------------------------------
2:------------------------------------------------------------------
3:------------------------------------------------------------------
4:----------------------------------------------------------2-----4-
5:-7-7-------------7-7-------------7-7-------------7-7----2-----4---
6:-5-5-3-2-3-3-2-3-5-5-3-2-3-3-2-3-5-5-3-2-3-2-3-2-5-5--3-----5-----

Ending Riff a:
==============
   (F#5)                       N.C.
1:---------------------------------
2:---------------------------------
3:---------------------------------
4:---------------------------------
5:-4-----4-----4---4-----4-----4-5-
6:---2-2---2-2---2---2-2---2-2-----

Ending Riff b:
==============
   F#5         G5
1:---------------
2:---------------
3:---------------
4:-4--4--4--4--5-
5:-4--4--4--4--5-
6:-2--2--2--2--3-


Song Structure:
======================
---> Play Intro (x2)
---> Play Riff 1 over:
---> Play Riff 2 over:
---> Play Riff 1 over:
---> Play Riff 2 over:
---> Play Chorus over:
---> Play Intro (x2)
---> Play Riff 1 over:
---> Play Riff 2 over:
---> Play Chorus over:
---> Play Riff 3 (x1)
---> Play Riff 3 over:
---> Play Ending Riff a over:
---> Play Ending Riff b over:
   

'All Mixed Up'
Performed by 311
From the album "311" on Capricorn Records
Music by:  N. Hexum
Lyrics by:  N. Hexum & D. Martinez
(c) 1995 Allegiance Music/Hydroponic Music BMI
----------
Tabbed by: Michael Slusarz (slusarz@ucsu.colorado.edu)
Additions/Corrections by: Alan Maschek (jam9921@tam2000.tamu.edu)


Riff 1 (Clean):
===============
   G#   A    B
1:-4----5----7-7-7-7-7-7-
2:-4----5----7-7-7-7-7-7-
3:-5----6----8-8-8-8-8-8-
4:-6----7----9-9-9-9-9-9-
5:-6----7----9-9-9-9-9-9-
6:-4----5----7-7-7-7-7-7-

Riff 2 (w/Distortion):
======================
   B    F#5 A5
1:-------------------------
2:-4-4---------------------
3:-4-4---------------------
4:-4-4--4///7-7-7-7-7-7-7-7-
5:-2-2--4///7-7-7-7-7-7-7-7-
6:------2///5-5-5-5-5-5-5-5-

 -- or --

   B     F#5 A
1:-----------0-0-0-0-0-0-0-0-
2:-4-4-------2-2-2-2-2-2-2-2-
3:-4-4-------2-2-2-2-2-2-2-2-
4:-4-4---4---2-2-2-2-2-2-2-2-
5:-2-2---4---0-0-0-0-0-0-0-0-
6:-------2-------------------

Riff 3 (Clean):
===============
   B       A
1:-7----7--5----5-
2:-7----7--5----5-
3:-8----8--6----6-
4:-9----9--7----7-
5:-9----9--7----7-
6:-7----7--5----5-


Song Structure:
======================
---> Play Riff 1 (x4)
---> Play Riff 1 over:
---> Play Riff 2 over:
---> No guitar over:
---> Play Riff 2 over:
---> Play Riff 1 over:
---> Play Riff 2 over:
---> No guitar over:
---> Play Riff 2 over:
---> Muted B (x2444x) over:(x4)
---> Play Riff 3 over:
---> Play Riff 2 over:

'Hive'
Performed by 311
From the album "311" on Capricorn Records
Music by:  C. Sexton & N. Hexum
Lyrics by:  N. Hexum & D. Martinez
(c) 1995 Allegiance Music/Hydroponic Music BMI
----------
Tabbed by: Christopher Comeaux (Christopher.Comeaux@Eng.Auburn.EDU)
Additions/Corrections by: Gregory Parr (gparr@tiger.lsuiss.ocs.lsu.edu)
			  Graeme Hopkins (gthopkin@uiuc.edu)


Intro:
======
   E5
1:---------------------------------
2:---------------------------------
3:-2-2-2-2-2-2-2-2-2-2-2-2-2-2-2-2-
4:-2-2-2-2-2-2-2-2-2-2-2-2-2-2-2-2-
5:-0-0-0-0-0-0-0-0-0-0-0-0-0-0-0-0-
6:---------------------------------

Verse A:
========
   E5 F5 A5/E A#5/F  E5 F5 A5/E A#5/F
1:------------------------------------
2:------------------------------------
3:--------2---3---3---------2---3---3-
4:-2--3---2---3---3--2--3---2---3---3-
5:-2--3---0---1---1--2--3---0---1---1-
6:-0--1---0---1-0-1--0--1---0---1-0-1-

[Or replace open E (0) with another A5/E.]

Verse B:
========
   E5 F5 A5/E A#5/F  E5 F5 A5/E A#5/F C5 A#5
1:-----------------------------------------
2:-----------------------------------------
3:--------2---3---3---------2----3----5--3-
4:-2--3---2---3---3--2--3---2----3----5--3-
5:-2--3---0---1---1--2--3---0----1----3--1-
6:-0--1---0---1-0-1--0--1---0----1---------

[Or replace open E (0) with another A5/E.]

Pre-Chorus:
===========
Play (x3):

   N.C.
1:---------------------
2:---------------------
3:---------------------
4:---------------------
5:-----------------2-3-
6:-0-2-0-2-3-5-3-2-----

then:

   N.C.
1:---------------------------
2:---------------------------
3:---9-------------------9//-
4:-----8---8-------8---8-----
5:-------7---7---7---7-------
6:-0-----------6-------------

Chorus A:
=========
   B5        D5  B5 D5 B5         D5 B5 D5
1:----------------------------------------
2:----------------------------------------
3:----------------------------------------
4:----------------------------------------
5:-2-2-2-2-2--5--2--5--2-2-2-2-2--5--2--5-
6:-2-2-2-2-2--5--2--5--2-2-2-2-2--5--2--5-

Chorus B:
=========
   E5  F#5 G5 A5   Bb5 B5  A5
1:-----------------------------------
2:-----------------------------------
3:-----------------------------------
4:-2---4---5---7---8---9---7-7-7-7-7-
5:-2---4---5---7---8---9---7-7-7-7-7-
6:-0---2---3---5---6---7---5-5-5-5-5-


Song Structure:
======================
---> Play Intro
---> Play Verse (a+b) over:
---> Play Pre-Chorus over:
---> Play Chorus a over:
---> Play Chorus b over:
---> Play Verse (a-b) over:
---> Play Pre-Chorus over:
---> Play Chorus a over:
---> Play Chorus b over:
---> Play Verse (a-b) over:
---> Play Pre-Chorus over:
---> Play Chorus a over:
---> Play Chorus b
---> Play E5, F5, A5, Bb5



'Guns (are for pussies)'
Performed by 311
From the album "311" on Capricorn Records
Music by:  C. Sexton
Lyrics by:  N. Hexum & D. Martinez
(c) 1995 Allegiance Music/Hydroponic Music BMI
----------
Tabbed by: Josh Tyson (jotyson@vt.edu)


Riff A (w/Distortion):
======================
   N.C.
1:-------------------------------------------------------
2:-------------------------------------------------------
3:-------------------------------------------------------
4:-------------------------------------------------------
5:-0-4-0-4-5--5--0-4-0-4-5--5----------------------------
6:----------------------------0-2-0-2-3--3--0-2-0-2-3--3-

Riff B (w/Distortion):
======================
   N.C.
1:-------------------------------------------------
2:-------------------------------------------------
3:-------------------------------------------------
4:-------------------------------------------------
5:------------2----------------------3--5--2--0----
6:-1--3--3-3-----3--3-3---1--3--3-3--------------3-

Chorus (w/Distortion):
======================
   N.C.
1:----------------------------
2:----------------------------
3:----------------------------
4:----------------------------
5:----------------------------
6:-0-5-0-0-5--5--0-3-2-0-2--2-

Ending (w/Distortion):
======================
   E5     G5 F#5 G5 E5     G5 F#5 G5 F5     G5 F#5 G5 F5       G5 F#5 F5
1:----------------------------------------------------------------------
2:----------------------------------------------------------------------
3:----------------------------------------------------------------------
4:----------------------------------------------------------------------
5:-2-2-2--5-5-4--5--2-2-2--5-5-4--5--3-3-3--5-5-4--5--3--3--3--5-5-4--3-
6:-0-0-0--3-3-2--3--0-0-0--3-3-2--3--1-1-1--3-3-2--3--1--1--1--3-3-2--1-


Song Structure:
======================
---> Play Riff A over:
---> Play Riff B over:
---> Play Chorus (x2) over:
---> Play Riff A over:
---> Play Riff B over:
---> Play Chorus (x2) over:
---> Play Ending (x2)
---> End on E5 (022xxx)



'Misdirected Hostility'
Performed by 311
From the album "311" on Capricorn Records
Music by:  N. Hexum
Lyrics by:  N. Hexum & D. Martinez
(c) 1995 Allegiance Music/Hydroponic Music BMI
----------
Tabbed by: Michael Slusarz (slusarz@ucsu.colorado.edu)
           Christopher Comeaux (Christopher.Comeaux@Eng.Auburn.EDU)


Intro (w/Distortion):
=====================
   N.C.
1:---------------------------------------------------------
2:---------------------------------------------------------
3:---------------------------------------------------------
4:---------------------------------------------------------
5:-9--7-5--3-5p3p0-3-5-7-5-3-5----9--7-5--3-5p3p0-3-0------
6:-----------------------------------------------------3-2-

Riff 1 (w/Distortion):
======================
   D5 A5 C5  D5 A5 C5  D5 A5 C5  D5 A5 C5
1:---------------------------------------
2:---------------------------------------
3:-7-----5---7-----5---7-----5---7-----5-
4:-7--7--5---7--7--5---7--7--5---7--7--5-
5:-5--7--3---5--7--3---5--7--3---5--7--3-
6:----5---------5---------5---------5----

Riff 2 (w/Distortion):
======================
   D5
1:------
2:------
3:-7///-
4:-7///-
5:-5///-
6:------

Riff 3 (w/Distortion):
======================
   B5   N.C.
1:--------------
2:--------------
3:-4-4----------
4:-4-4----------
5:-2-2----2-4-2-
6:------4-------

Riff 4 (w/Distortion):
======================
   E5 F5      N.C.                         E5 F5      N.C.
1:----------------------------------------------------------------------
2:----------------------------------------------------------------------
3:----------------------------------------------------------------------
4:-2--3---3-3-10///-10-9-10-11-10-9-10--2--3---3-3-10///-10-9-10-10-9-10
5:-2--3---3-3---------------------------2--3---3-3----------------------
6:-0--1-0-1-1---------------------------0--1-0-1-1----------------------

Riff 5 (w/Distortion):
======================
   F#5
1:-------------
2:-------------
3:-------------
4:-3-3-3-3-3-3-
5:-3-3-3-3-3-3-
6:-1-1-1-1-1-1-


Lyrics/Song Structure:
======================
---> Play Intro (x2)
---> Play Riff 1 over:
---> Play Riff 2 over:
---> Play Riff 1 over:
---> Play Riff 2 over:
---> Play Riff 3 over:
---> Play Riff 1 over:
---> Play Riff 4
---> Play Riff 1 over:
---> Play Riff 2 over:
---> Play Riff 3 over:
---> Play Riff 1 over:
---> Play Riff 5 over:
---> Play Riff 1 over:
---> Play Riff 2 over:
---> Play Riff 3 over:
---> Play Riff 1 over:
---> Play Riff 5 (x2)
---> Play Riff 2 (x1)


[ Tab from: http://www.guitartabs.cc/tabs/0-9/311/311_tab.html ]
'Purpose'
Performed by 311
From the album "311" on Capricorn Records
Music by:  N. Hexum
Lyrics by:  N. Hexum
(c) 1995 Allegiance Music/Hydroponic Music BMI
----------
Tabbed by: Josh Tyson (jotyson@vt.edu)
Additions/Corrections by: Michael Slusarz (slusarz@ucsu.colorado.edu)
                          Gregory Parr (gparr@tiger.lsuiss.ocs.lsu.edu)


Riff A (Clean):
===============
   E     F#m    Abm     F#m
1:-7--7---9--9--11--11---9---9-
2:-9--9--10-10--12--12--10--10-
3:-9--9--11-11--13--13--11--11-
4:-----------------------------
5:-----------------------------
6:-----------------------------

Fill 1 - A (Clean):
===============
  N.C.
1:----------------14\\----------------------------------14--14p13p12-
2:-11h12p11h12p11-------9h10p9h10p9------11h12p11h12p11--------------
3:----------------------------------9\\------------------------------
4:-------------------------------------------------------------------
5:-------------------------------------------------------------------
6:-------------------------------------------------------------------

Riff 1 - B (Clean):
===============
  N.C.
1:----------------14\\----------------------------------14-14/16-
2:-11h12p11h12p11-------9h10p9h10p9------11h12p11h12p11----------
3:----------------------------------9\\--------------------------
4:---------------------------------------------------------------
5:---------------------------------------------------------------
6:---------------------------------------------------------------

Riff B (w/Distortion):
======================
   N.C.
1:------------------------------------------------------------
2:------------------------------------------------------------
3:------------------------------------------------------------
4:------------------------------------------------------------
5:--------7-7--------7-----------------7-7--------7-----------
6:-0--5-7------4-5-7----4-5-7----0-5-7------4-5-7----4-5-7-4--

Riff C (w/Distortion):
======================
   F#5  A5   E5   F#5  A5   E5
1:------------------------------
2:------------------------------
3:------2--------------2--------
4:-4----2----2----4----2----2-2-
5:-4----0----2----4----0----2-2-
6:-2---------0----2---------0-0-

Riff D (w/Distortion):
======================
   N.C.
1:----------------------------------------------------
2:----------------------------------------------------
3:----------------------------------------------------
4:----------------------------------------------------
5:----------------------------------------------------
6:-2-0-1-2--0-1-2-0-1-2--2-4-5--2-4-5--2-4-5--0-0-0-0-

Riff E (w/Distortion):
======================
   C#5  B5
1:-----------
2:-----------
3:-6----4--4-
4:-6----4--4-
5:-4----2--2-
6:-----------


Song Structure:
======================
---> Drum Intro
---> Play Riff A over:
---> Play Fill 1 - A
---> Play Fill 1 - B
---> Play Riff B (x2)
---> Play Riff B over:
---> Play Riff C over:
---> Play Riff D over:
---> Play Riff E over:
---> Play Riff A over:
---> Play Fill 1 - A
---> Play Fill 1 - B
---> Play Riff B (x2)



'Loco'
Performed by 311
From the album "311" on Capricorn Records
Music by:  T. Mahoney
Lyrics by:  N. Hexum
(c) 1995 Allegiance Music/Hydroponic Music BMI
----------
Tabbed by: Josh Tyson (jotyson@vt.edu)
Additions/Corrections by: Gregory Parr (gparr@tiger.lsuiss.ocs.lsu.edu)


Riff A (w/Distortion):
======================
   N.C.
1:---------------------------
2:---------------------------
3:---------------------------
4:---------------------------
5:------------0-4------0-4-2-
6:-0-1-2-0-2--------2--------

Riff B (w/Distortion):
======================
   N.C.
1:-------------------------------
2:-------------------------------
3:-------------------------------
4:-------------------------------
5:--------2-4-2------------------
6:-0-2-4---------4---0-2-0-4-4-2-

Riff C (w/Distortion):
======================
   E5 F5 F#5      A5 A#5 B5  B5/F#
1:-----------------------------
2:-----------------------------
3:-----------------------------
4:----------------2--3---4---4-
5:-2--3--4---4----0--1---2---2-
6:-0--1--2---2---------------2-


Lyrics/Song Structure:
======================
---> Play Riff A over:
---> Play Riff B over:
---> Play Riff A over:
---> Play Riff B over:
---> Play Riff C over:
---> Play Riff A over:
---> Play Riff B over:
---> Play Riff C (x2) over:
---> End w/first 3 chords of Riff C



'Brodels'
Performed by 311
From the album "311" on Capricorn Records
Music by:  C. Sexton
Lyrics by:  N. Hexum & D. Martinez
(c) 1995 Allegiance Music/Hydroponic Music BMI
----------
Tabbed by: Gregory Parr (gparr@tiger.lsuiss.ocs.lsu.edu)


Riff 1a:
========
   C#5/Ab B5/F# C#5/Ab B5/F# C#5/Ab B5/F# C#5/Ab B5/F# E5/B D#5/Bb
1:------------------------------------------------------------
2:------------------------------------------------------------
3:------------------------------------------------------------
4:-6------4-----6------4-----6------4-----6------4/////9----8-
5:-4------2-----4------2-----4------2-----4------2/////7----6-
6:-4------2-----4------2-----4------2-----4------2/////7----6-

Riff 1b:
========
   C#5/Ab B5/F# C#5/Ab B5/F# C#5/Ab B5/F# C#5/Ab B5/F# N.C.
1:-------------------------------------------------------
2:-------------------------------------------------------
3:-------------------------------------------------------
4:-6------4-----6------4-----6------4-----6------4-----4-
5:-4------2-----4------2-----4------2-----4------2-----1-
6:-4------2-----4------2-----4------2-----4------2-------

Riff 2:
=======
   G5  F#5 G5  F#5 G5      F#5 G5  F#5 G5  A5  F#5
1:-----------------------------------------------
2:-----------------------------------------------
3:-----------------------------------------------
4:-5---4---5---4---5---5---4---5---4---5---7---4-
5:-5---4---5---4---5---5---4---5---4---5---7---2-
6:-3---2---3---2---3---3---2---3---2---3---5---2-

Riff 3:
=======
   A5   G5     A5 G5 A5 G5     Bb5 A5 G5
1:--------------------------------------
2:--------------------------------------
3:--------------------------------------
4:-7-7--5-5-5--7--5--7--5-5-5--8---7--5-
5:-7-7--5-5-5--7--5--7--5-5-5--8---7--5-
6:-5-5--3-3-3--5--3--5--3-3-3--6---5--3-

Chorus A:
=========
   G5 F#5 F5   G5 A5 Bb5 A5 G5 F#5 E5       F#5 F5
1:--------------------------------------------------
2:--------------------------------------------------
3:--------------------------------------------------
4:-5--4---3-3--5--7--8---7--5--4---2-2-2-2--4---3-3-
5:-5--4---3-3--5--7--8---7--5--2---2-2-2-2--4---3-3-
6:-3--2---1-1--3--5--6---5--3--2---0-0-0-0--2---1-1-

Chorus B:
=========
   G5 A5 Bb5 A5 G5   F#5   A5   G5 F#5 F5
1:---------------------------------------
2:---------------------------------------
3:---------------------------------------
4:-5--7--8---7--5-5--4-4---2-2-----------
5:-5--7--8---7--5-5--2-2---0-0--5--4---3-
6:-3--5--6---5--3-3--2-2--------3--2---1-

Fill 1:
=======
   E5 F#5 G5 E5 F#5 D5/A C#5/Ab B5/F#
1:--------------------------------
2:--------------------------------
3:--------------------------------
4:------------------7----6------4-
5:-2--4---5--2--4---5----4------2-
6:-0--2---3--0--2---5----4------2-

Ending:
=======
   D5/A C#5/Ab D5/A C#5/Ab D5/A C#5/Ab B5/F#  C#5/Ab D5/A C#5/Ab
1:----------------------------------------------------------
2:----------------------------------------------------------
3:----------------------------------------------------------
4:-7----6------7----6------7----6-6-6--4-4-4--6------7----6-
5:-5----4------5----4------5----4-4-4--2-2-2--4------5----4-
6:-5----4------5----4------5----4-4-4--2-2-2--4------5----4-


Lyrics/Song Structure:
======================
---> Play Riff 1 (a+b) over:
---> Play Riff 2 over:
---> Play Riff 3 over:
---> Play Chorus (a+b) over:
---> Play Riff 1 (a+b) over:
---> Play Riff 2 over:
---> Play Riff 3 over:
---> Play Chorus (a+b) over:
---> Play Ending over:


'Don't Stay Home'
Performed by 311
From the album "311" on Capricorn Records
Music by:  N. Hexum
Lyrics by:  N. Hexum
(c) 1995 Allegiance Music/Hydroponic Music BMI
----------
Tabbed by: Michael Slusarz (slusarz@ucsu.colorado.edu)
Additions/Corrections by: Gregory Parr (gparr@tiger.lsuiss.ocs.lsu.edu)


Riff 1 - A (w/Distortion):
=======================
   G                Bm
1:--------------------------------
2:------------------3-3-3-3-3-3-3-
3:-4-4-4-4-4-4-4-4--4-4-4-4-4-4-4-
4:-5-5-5-5-5-5-5-5--4-4-4-4-4-4-4-
5:-5-5-5-5-5-5-5-5--2-2-2-2-2-2-2-
6:-3-3-3-3-3-3-3-3----------------

Riff 1 - B (w/Distortion):
=======================
   G                E
1:--------------------
2:--------------------
3:-4-4-4-4-4-4-4-4--1-
4:-5-5-5-5-5-5-5-5--2-
5:-5-5-5-5-5-5-5-5--2-
6:-3-3-3-3-3-3-3-3--0-

Chorus - A (w/Distortion):
==========================
   E5  E  E5  E  A5  A  A5  A  B5  B  B5  B  A5  A  A5  A
1:--------------------------------------------------------
2:-------------------2------2------4------4------2------2-
3:-----1------1------2------2------4------4------2------2-
4:-----2------2--2-2-2--2-2-2--4-4-4--4-4-4--2-2-2--2-2-2-
5:-2-2-2--2-2-2--0-0-0--0-0-0--2-2-2--2-2-2--0-0-0--0-0-0-
6:-0-0-0--0-0-0-------------------------------------------

Chorus - B (w/Distortion):
==========================
   E5  E  E5  E  A5  A  A5  A  B5  B  B5  B  B5  B  B5  B
1:--------------------------------------------------------
2:-------------------2------2------4------4------4------4-
3:-----1------1------2------2------4------4------4------4-
4:-----2------2--2-2-2--2-2-2--4-4-4--4-4-4--4-4-4--4-4-4-
5:-2-2-2--2-2-2--0-0-0--0-0-0--2-2-2--2-2-2--2-2-4--2-2-2-
6:-0-0-0--0-0-0-------------------------------------------

Bridge A (w/Distortion):
========================
   E5
1:------------------
2:------------------
3:------------------
4:-2----2----2----2-
5:-2----2----2----2-
6:-0----0----0----0-

Bridge B (w/Distortion):
========================
   N.C.
1:-------------------------
2:-------------------------
3:-------------------------
4:---------------------1-2-
5:---2-0---2-1-0-2-4-2-----
6:-0-----4-----------------


Song Structure:
======================
---> Drum Intro
---> Play Riff 1 - A over:
---> Play Riff 1 - B over:
---> Play Chorus over:
---> Play Chorus - B (x1)
---> Play Riff 1 - A over:
---> Play Riff 1 - B over:
---> Play Chorus over:
---> Play Chorus - B (x1)
---> Play Riff 1 - A over:
---> Play Riff 1 - B over:
---> Play Bridge A (x1)
---> Play Bridge B over:
---> Drum interlude
---> Play Chorus over:
---> Play Chorus - B (x1)
---> End on E5 (022xxx)



'DLMD'
Performed by 311
From the album "311" on Capricorn Records
Music by:  N. Hexum
Lyrics by:  N. Hexum & D. Martinez
(c) 1995 Allegiance Music/Hydroponic Music BMI
----------
Tabbed by:  Josh Tyson (jotyson@vt.edu)
Additions/Corrections by:  Gregory Parr (gparr@tiger.lsuiss.ocs.lsu.edu)


Intro - A (w/Distortion):
========================
   N.C.    C5(add B)/G   G5 F5 A5
1:-----------------------------
2:-----------------------------
3:---------4---------------------
4:---------5-------------5--3--7-
5:-5-3-----3------5-3----5--3--7-
6:-----5---3----------5--3--1--5-

Intro - B (w/Distortion):
=========================
   Bb5              A5
1:----------------------
2:----------------------
3:----------------------
4:-8-8-8-8-8-8-8-8--7//-
5:-8-8-8-8-8-8-8-8--7//-
6:-6-6-6-6-6-6-6-6--5//-


Verse (w/Distortion):
=====================
   N.C.
1:-----------------------------------
2:-----------------------------------
3:-----------------------------------
4:---------------------------3-3-----
5:-3-5-3-5--3-5-3-5--3-5-3-5-----3-5-
6:-----------------------------------

Chorus (w/Distortion):
======================
     N.C.      F#5 N.C.      F#5
1:----------------------------------------
2:----------------------------------------
3:----------------------------------------
4:-----------4---------------4--4-4--4--4-
5:-7-5-------4---7-5---------4--4-4--4--4-
6:-----7-5-3-2-------7-5-3-2-2--2-2--2--2-

Ending (w/Distortion):
======================
   F#5
1:------------------------
2:------------------------
3:------------------------
4:-4--4-4-4--4-4-4--4-4-4-
5:-4--4-4-4--4-4-4--4-4-4-
6:-2--2-2-2--2-2-2--2-2-2-


Song Structure:
======================
---> Play Intro - A over:
---> Play Intro - B
---> Play Verse over:
---> Play Chorus over:
---> Play Verse over:
---> Play Chorus over:
---> Play Verse over:
---> Play Chorus over:
---> Play Ending over:
---> End on a D5 (x577xx)



'Sweet'
Performed by 311
From the album "311" on Capricorn Records
Music by:  T. Mahoney
Lyrics by:  N. Hexum & D. Martinez
(c) 1995 Allegiance Music/Hydroponic Music BMI
----------
Tabbed by: Josh Tyson (jotyson@vt.edu)
Additions/Corrections by: Michael Slusarz (slusarz@ucsu.colorado.edu)
                          Gregory Parr (gparr@tiger.lsuiss.ocs.lsu.edu)


Riff 1 (Clean):
===============
   E7              A
1:-7-7-7-7---7-----5-5-5-5---5-
2:-9-9-9-9---9-----5-5-5-5---5-
3:-7-7-7-7---7-----6-6-6-6---6-
4:-9-9-9-9---9-----------------
5:-7-7-7-7---7-----------------
6:-----------------------------

Riff 2 (Clean):
===============
   Abdim   A
1:-7--7----5--5-
2:-9--9----6--6-
3:-7--7----6--6-
4:--------------
5:--------------
6:--------------

Chorus (w/Distortion):
======================
   N.C.
1:------------------------------------------------------------
2:---------------b9b------------------------------------------
3:------------7------7----------------------------------------
4:-----6-7-9------------9-7-6-7-6-0---------------------------
5:-5-7-------------------------------5-4---4--4--4--5--4------
6:---------------------------------------5----------------5-3-


Song Structure:
======================
---> Bass Intro
---> Play Riff 1 over:
---> Play Riff 2 over:
---> Play Chorus over:
---> Play Riff 1 over:
---> Play Riff 2 over:
---> Play Chorus over:
---> Solo
---> Solo 2 over Chorus



'T&P Combo'
Performed by 311
From the album "311" on Capricorn Records
Music by:  T. Mahoney & A. Willis
Lyrics by:  N. Hexum & D. Martinez
(c) 1995 Allegiance Music/Hydroponic Music BMI
----------
Tabbed by: Michael Slusarz (slusarz@ucsu.colorado.edu)
Additions/Corrections by: Gregory Parr (gparr@tiger.lsuiss.ocs.lsu.edu)


Riff 1:
=======
   F#5              C5   C#5      E5   F5
1:-----------------------------------------
2:-----------------------------------------
3:-----------------------------------------
4:-4-4--x-x-11-11-x-5-5--6-6--x-x-9-9--3-3-
5:-4-4--x-x--9--9-x-3-3--4-4--x-x-7-7--3-3-
6:-2-2--x------------------------------1-1-

Riff 2 (w/variations):
======================
Just variations of (F5 - F5/E) and (F#5 - F#5/E).
Something like:

1:----------------------------------------------------------------------
2:----------------------------------------------------------------------
3:----------------------------------------------------------------------
4:-3-3-3-3-3-3-3-3-3-3-3-3-3-3-3-3-3-3-4-4-4-4-4-4-4-4-4-4-4-4-4-4-4-4-4
5:-3-3-3-3-3-3-3-3-3-3-3-3-3-3-3-3-3-3-4-4-4-4-4-4-4-4-4-4-4-4-4-4-4-4-4
6:-0-1-1-1-0-1-1-1-0-1-0-1-1-1-0-1-1-1-0-2-2-2-0-2-2-2-0-2-0-2-2-2-0-2-2

Riff 3:
=======
   E9                              F9
1:-----------------------------------
2:-7-7-7-7-7-7-7-7-7-7-7-7-7-7-7---8-
3:-7-7-7-7-7-7-7-7-7-7-7-7-7-7-7---8-
4:-6-6-6-6-6-6-6-6-6-6-6-6-6-6-6---7-
5:-7-7-7-7-7-7-7-7-7-7-7-7-7-7-7---8-
6:-----------------------------------

Riff 4:
=======
   E9           F#5      G
1:-------------------------------
2:-------------------------------
3:-7-7-7-7-7-7-------------------
4:-6-6-6-6-6-6--4-4-4-4--5-5-5-5-
5:-7-7-7-7-7-7--4-4-4-4--5-5-5-5-
6:-0-0-0-0-0-0--2-2-2-2--3-3-3-3-

Chorus 1a:
==========
   N.C.                         G   E5 G5  A5 G5 E5   G5  A5 
1:----------------------------------------------------------
2:----------------------------------------------------------
3:----------------------------------------------------------
4:-------5-6-7-6-5--------------0---2--5---7--5--2-2--5---7-
5:-5-6-7-----------7-6-5--------2---2--5---7--5--2-2--5---7-
6:-----------------------7-6-5//3---0--3---5--3--0-0--3---5-

Chorus 1b:
==========
   G  E5 G5 A5 G5 E5   G5  A5
1:---------------------------
2:---------------------------
3:---------------------------
4:-0--2--5--7--5--2-2--5---7-
5:-2--2--5--7--5--2-2--5---7-
6:-3--0--3--5--3--0-0--3---5-


Song Structure:
======================
---> Play Riff 1 over:
---> Play Riff 2 over:
---> Play Riff 3 over:
---> Play Riff 4 over:
---> Play Chorus 1a over:
---> Play Chorus 1b over:
---> Play Riff 1 over:
---> Play Riff 2 over:
---> Play Riff 3 over:
---> Play Riff 4 over:
---> Play Chorus 1a over:
---> Play Chorus 1b over:
Comments