311 - 1 2 3 Chords & Tabs

 

1 2 3 Chords & Tabs

311 Chords & Tabs

Version: 2 Type: Bass Tab

1 2 3 Bass Tab

   
Artist: 311
Song: 1, 2 ,3
Album: Grassroots (1994)
Bassist: P-Nut
Tuning: B-E-A-D-G


Verse 1:
G|--------------------------------------------------------------------------|
D|--------------------------------------------------------------------------|
A|--4--------4--------2--------2--------4--------4--------2------------7-6--|
E|----2-2------2-2------0-0------0-0-0----2-2------2-2------0-0------0------|
B|--------------------------------------------------------------------------|


Pre-Chorus:
G|------------------------------------------------------|
D|------------------------------------------------------|
A|--5-5-5-5------5-5-5-5---5--4-4-4-4------4-4-4-4---4--|
E|----------5--5---------5------------4--4---------4----|
B|------------------------------------------------------|

G|------------------------------------------------------|
D|------------------------------------------------------|
A|--5-5-5-5------5-5-5-5---5--4-4-4-4------4-4-4-4------|
E|----------5--5---------5------------4--4---------5-4--|
B|------------------------------------------------------|


Chorus:
G|--------------------------------------|
D|--------2--4--2-----------2--4--2-----|
A|--2--4-----------4--0--4-----------4--|
E|--------------------------------------|
B|--------------------------------------| (x2)


Verse 2:
G|--------------------------------------------------------------------------|
D|--------------------------------------------------------------------------|
A|--4--------4--------2--------2--------4--------4--------2------------7-6--|
E|----2-2------2-2------0-0------0-0-0----2-2------2-2------0-0------0------|
B|--------------------------------------------------------------------------|

[ Tab from: http://www.guitartabs.cc/tabs/0-9/311/1_2_3_btab_ver_2.html ]
Pre-Chorus:
G|------------------------------------------------------|
D|------------------------------------------------------|
A|--5-5-5-5------5-5-5-5---5--4-4-4-4------4-4-4-4---4--|
E|----------5--5---------5------------4--4---------4----|
B|------------------------------------------------------|

G|------------------------------------------------------|
D|------------------------------------------------------|
A|--5-5-5-5------5-5-5-5---5--4-4-4-4------4-4-4-4------|
E|----------5--5---------5------------4--4---------5-4--|
B|------------------------------------------------------|


Chorus:
G|--------------------------------------|
D|--------2--4--2-----------2--4--2-----|
A|--2--4-----------4--0--4-----------4--|
E|--------------------------------------|
B|--------------------------------------| (x2)


Outro:
G|----------------------------------------------|
D|----------------------------------------------|
A|----------------------------------------------|
E|--0-2-4--2-4-5---5-4-2--0-2-4--2-4-5---5-4-2--|
B|----------------------------------------------|

G|----------------------------------------------------|
D|----------------------------------------------------|
A|----------------------------------------------------|
E|--0-2-4--2-4-5---5-4-2--0-2-4--2-4-5---5-4--4-2--2--|
B|----------------------------------------------------|

G|----------------------------------------------|
D|----------------------------------------------|
A|----------------------------------------------|
E|--0-2-4--2-4-5---5-4-2--0-2-4--2-4-5---5-4-2--|
B|----------------------------------------------|

G|----------------------------------------------------|
D|----------------------------------------------------|
A|----------------------------------------------------|
E|--0-2-4--2-4-5---5-4-2--0-2-4--2-4-5---5-4--4-2--2--|
B|----------------------------------------------------|

G|--------------------------------------|
D|--------------------------------------|
A|--------------------------------------|
E|--------0--2--0-----5-----0--2--0-----|
B|--0--2-----------2-----2-----------2--|

G|---------------------------------------|
D|---------------------------------------|
A|-----------------------------------4~--|
E|--------0--2--0-----5-----0--2--0------|
B|--0--2-----------2-----2-----------2~--|