311 - 100 Rock Chords & Tabs

 

100 Rock Chords & Tabs

311 Chords & Tabs

Version: 1 Type: Tab 0 ratings
1 star 2 stars 3 stars 4 stars 5 stars
comments

100 Rock Tab

   
“100 Rock” by: 311

Tabbed by: Chris Gill
Email: CGill1403@aol.com

This was a demo off of “don’t tread on me” hit me up on AIM if u would like to hear it

Tuning: E A D G B E

e|----------------------------------------------|
B|----------------------------------------------|
G|----------------------------------------------|
D|-----5-----5------5-----5------5-----5-----5--|
A|--6--3--6--3---6--3--6--3---6--3--6--3--6--3--|
E|--4-----4------4-----4------4-----4-----4-----|
w/ octaver
[ Tab from: http://www.guitartabs.cc/tabs/0-9/311/100_rock_tab.html ]
e|-------------------------------|
B|-------------------------------|
G|-------------------------------|
D|-------------------------------|
A|--2-----5--4--2--x-x-x--5-4-5--|
E|--0-----3--2--0--x-x-x--3-2-3--|
w/ octaver

e|------------------------------|
B|------------------------------|
G|------------------------------|
D|------------------------------|
A|--2--x-x-5-4-5-2--2--x--4--5--|
E|--0--x-x-3-2-3-0--0--x--2--3--|
w/ octaver


| /  slide up
| \  slide down
| h  hammer-on
| p  pull-off
| ~  vibrato
| +  harmonic
| x  Mute note
===============================================================================

Comments