30 Seconds To Mars - Was It A Dream Chords & Tabs

 

Was It A Dream Chords & Tabs

30 Seconds To Mars Chords & Tabs

Version: 2 Type: Tab

Was It A Dream Tab

Band: 30 Seconds To Mars
Song: Was It A Dream?
Tuning: Drop D [DADGBE]

Posted By: Andreas Karlsson From Chronic Desire 
[E-Mail: linkinparker_15@hotmail.com]

[Intro/Verse] Guitar 1 [Tomo]  x4
e|-----------------|-----------------|-----------------|-----------------|
b|-----------------|-----------------|-----------------|-----------------|
g|-----------------|-----------------|-----------------|-----------------|
d|-----2---3---2---|-----5------5----|-----2---3---2---|-----5------7----|
a|-0-0---0---0---0-|-3-3----3-3------|-0-0---0---0---0-|-3-3----5-5------|
D|-----------------|-----------------|-----------------|-----------------|
 
e|-----------------|-----------------|-----------------|-----------------|
b|-----------------|-----------------|-----------------|-----------------|
g|-----------------|-----------------|-----------------|-----------------|
d|-----2---3---2---|-----5------5----|-----5------5----|-----9------9/10-|
a|-0-0---0---0---0-|-3-3----3-3------|-----------------|/7-7----7-7------|
D|-----------------|-----------------|-5-5----5-5------|-----------------|

[Chorus] Guitar 1 [Tomo]
e|-----------------|-----------------|-----------------|-----------------|
b|-----------------|-----------------|-----------------|-----------------|
g|-5---------------|-7---------------|-----------------|-9---------------|
d|-5---------------|-7---------------|-7---------------|-9---------------|
a|-3---------------|-5---------------|-7---------------|-7---------------|
D|-----------------|-----------------|-7---------------|-----------------|
 
e|-----------------|-----------------|-----------------|-----------------|
b|-----------------|-----------------|-----------------|-----------------|
g|-5---------------|-7---------------|-----------------|-----------------|
d|-5---------------|-7---------------|-----------------|-----------------|
a|-3---------------|-5---------------|-----------------|-----------------|
D|-----------------|-----------------|-----------------|-----------------|

[Verse] Guitar 1 [Tomo]  x4 [variations on end]
e|-----------------|-----------------|-----------------|-----------------|
b|-----------------|-----------------|-----------------|-----------------|
g|-----------------|-----------------|-----------------|-----------------|
d|-----2---3---2---|-----5------5----|-----2---3---2---|-----5------7----|
a|-0-0---0---0---0-|-3-3----3-3------|-0-0---0---0---0-|-3-3----5-5------|
D|-----------------|-----------------|-----------------|-----------------|
 
e|-----------------|-----------------|-----------------|-----------------|
b|-----------------|-----------------|-----------------|-----------------|
g|-----------------|-----------------|-----------------|-----------------|
d|-----2---3---2---|-----5------5----|-----5------5----|-----9------9/10-|
a|-0-0---0---0---0-|-3-3----3-3------|-----------------|/7-7----7-7------|
D|-----------------|-----------------|-5-5----5-5------|-----------------|
[ Tab from: http://www.guitartabs.cc/tabs/0-9/30_seconds_to_mars/was_it_a_dream_tab_ver_2.html ]
[Chorus 2] Guitar 1 [Tomo]
e|-----------------|-----------------|-----------------|-----------------|
b|-----------------|-----------------|-----------------|-----------------|
g|-5---------------|-7---------------|-----------------|-9---------------|
d|-5---------------|-7---------------|-7---------------|-9---------------|
a|-3---------------|-5---------------|-7---------------|-7---------------|
D|-----------------|-----------------|-7---------------|-----------------|
 
e|-----------------|-----------------|-----------------|-----------------|
b|-----------------|-----------------|-----------------|-----------------|
g|-5---------------|-7---------------|-----------------|-----------------|
d|-5---------------|-7---------------|-----------------|-----------------|
a|-3---------------|-5---------------|-----------------|-----------------|
D|-----------------|-----------------|-----------------|-----------------|

[Bridge] Guitar 1 [Tomo] x4 [Keyboard under this riff]
e|-----------------|-----------------|-----------------|-----------------|
b|-----------------|-----------------|-----------------|-----------------|
g|-----------------|-----------------|-7-7-7-7-7-7-7-7-|-7-7-7-7-7-7-7-7-|
d|-----2---2---2---|---2---2---2---2-|-5-5-5-5-5-5-5-5-|-5-5-5-5-5-5-5-5-|
a|-0-0-0-0-0-0-0-0-|-0-0-0-0-0-0-0-0-|-5-5-5-5-5-5-5-5-|-5-5-5-5-5-5-5-5-|
D|-----------------|-----------------|-----------------|-----------------|

[Chorus 2] Guitar 1 [Tomo]
e|-----------------|-----------------|-----------------|-----------------|
b|-----------------|-----------------|-----------------|-----------------|
g|-5---------------|-7---------------|-----------------|-9---------------|
d|-5---------------|-7---------------|-7---------------|-9---------------|
a|-3---------------|-5---------------|-7---------------|-7---------------|
D|-----------------|-----------------|-7---------------|-----------------|
 
e|-----------------|-----------------|-----------------|-----------------|
b|-----------------|-----------------|-----------------|-----------------|
g|-5---------------|-7---------------|-2---------------|-2---------------|
d|-5---------------|-7---------------|-2---------------|-2---------------|
a|-3---------------|-5---------------|-0---------------|-0---------------|
D|-----------------|-----------------|-----------------|-----------------|

e|-----------------|-----------------|-----------------|-----------------|
b|-----------------|-----------------|-----------------|-----------------|
g|-5---------------|-7---------------|-----------------|-9---------------|
d|-5---------------|-7---------------|-7---------------|-9---------------|
a|-3---------------|-5---------------|-7---------------|-7---------------|
D|-----------------|-----------------|-7---------------|-----------------|
 
e|-----------------|-----------------|-----------------|-----------------|
b|-----------------|-----------------|-----------------|-----------------|
g|-5---------------|-7---------------|-5---------------|-7---------------|
d|-5---------------|-7---------------|-5---------------|-7---------------|
a|-3---------------|-5---------------|-3---------------|-5---------------|
D|-----------------|-----------------|-----------------|-----------------|

e|-----------------|-----------------|-----------------|-----------------|
b|-----------------|-----------------|-----------------|-----------------|
g|-5---------------|-7---------------|-2~--------------|-----------------|
d|-5---------------|-7---------------|-2~--------------|-----------------|
a|-3---------------|-5---------------|-0~--------------|-----------------|
D|-----------------|-----------------|-----------------|-----------------|