30 Seconds To Mars - Kill Chords & Tabs

 

Kill Chords & Tabs

30 Seconds To Mars Chords & Tabs

Version: 3 Type: Tab

Kill Tab

   
Band: 30 Seconds To Mars
Song: The Kill
Tuning: Drop D [DADGBE]

Posted By: Andreas Karlsson From Chronic Desire 
[E-Mail: linkinparker_15@hotmail.com]

[Verse 1] Guitar 1 [Tomo] x2
e|-----------------|-----------------|-----------------|-----------------|
b|----0-------0----|----0-------0----|----0-------0----|----0-------0----|
g|-----------------|-----------------|-----------------|-----------------|
d|-5-5-5---5-5-5---|-5-5-5---5-5-5---|-7-7-7---7-7-7---|-7-7-7---7-7-7---|
a|-3-------3-------|-3-------3-------|-5-------5-------|-5-------5-------|
D|-----------------|-----------------|-----------------|-----------------|
 
e|-----------------|-----------------|-----------------|-----------------|
b|----0-------0----|----0-------0----|----0-------0----|----0-------0----|
g|-----------------|-----------------|-----------------|-----------------|
d|-9-9-9---9-9-9---|-9-9-9---9-9-9---|-4-4-4---4-4-4---|-4-4-4---4-4-4---|
a|-7-------7-------|-7-------7-------|-2-------2-------|-2-------2-------|
D|-----------------|-----------------|-----------------|-----------------|
  
[Chorus 1] Guitar 1 & 2 [Distortion]
e|-----------------|-----------------|-----------------|-----------------|
b|-----------------|-----------------|-----------------|-----------------|
g|-5---------------|-5---------------|-7---------------|-7----/----11----|
d|-5---------------|-5---------------|-7---------------|-7----/----11----|
a|-3---------------|-3---------------|-5---------------|-5----/----9-----|
D|-----------------|-----------------|-----------------|-----------------|
 
e|-----------------|-----------------|-----------------|-----------------|
b|-----------------|-----------------|-----------------|-----------------|
g|-9---------------|-9---------------|-4---------------|-4---------------|
d|-9---------------|-9---------------|-4---------------|-4---------------|
a|-7---------------|-7---------------|-2---------------|-2---------------|
D|-----------------|-----------------|-----------------|-----------------|

[Verse 2] Guitar 2 [Jared] Low Sound in background
e|-----------------|-----------------|-----------------|-----------------|
b|----0-------0----|----0-------0----|----0-------0----|----0-------0----|
g|-----------------|-----------------|-----------------|-----------------|
d|-5-5-5---5-5-5---|-5-5-5---5-5-5---|-7-7-7---7-7-7---|-7-7-7---7-7-7---|
a|-3-------3-------|-3-------3-------|-5-------5-------|-5-------5-------|
D|-----------------|-----------------|-----------------|-----------------|
 
e|-----------------|-----------------|-----------------|-----------------|
b|----0-------0----|----0-------0----|----0-------0----|----0-------0----|
g|-----------------|-----------------|-----------------|-----------------|
d|-9-9-9---9-9-9---|-9-9-9---9-9-9---|-4-4-4---4-4-4---|-4-4-4---4-4-4---|
a|-7-------7-------|-7-------7-------|-2-------2-------|-2-------2-------|
D|-----------------|-----------------|-----------------|-----------------|

[Verse 2] Guitar 1 [Tomo] 
e|-----------------|-----------------|-----------------|-----------------|
b|-----------------|-----------------|-----------------|-----------------|
g|-12p9------------|-12p9------------|-12p9------------|-12p9------------|
d|------12p9h10p9--|------12p9h10p9--|------12p9h12p10-|------12p9h12p10-|
a|-----------------|-----------------|-----------------|-----------------|
D|-----------------|-----------------|-----------------|-----------------|
 
e|-----------------|-----------------|-----------------|-----------------|
b|-----------------|-----------------|-----------------|-----------------|
g|--------12-------|--------12-------|--------12-------|---------12------|
d|-9-10-9----9-----|-9-10-9----9-----|-9-10-9----9-----|--9-10-9----9----|
a|-----------------|-----------------|-----------------|-----------------|
D|-----------------|-----------------|-----------------|-----------------|

e|-----------------|-----------------|-----------------|-----------------|
b|-----------------|-----------------|-----------------|-----------------|
g|-12p9------------|-12p9------------|-12p9------------|-12p9------------|
d|------12p9h10p9--|------12p9h10p9--|------12p9h12p10-|------12p9h12p10-|
a|-----------------|-----------------|-----------------|-----------------|
D|-----------------|-----------------|-----------------|-----------------|
 
e|-----------------|-----------------|-----------------|-----------------|
b|-----------------|-----------------|--------10-------|---------12------|
g|--------12-------|--------12-------|-----------------|-----------------|
d|-9-10-9----9-----|-9-10-9----9-----|-9-10-9----9-----|--9-10-9----9----|
a|-----------------|-----------------|-----------------|-----------------|
D|-----------------|-----------------|-----------------|-----------------|

[Chorus 2] Guitar 1 & 2 [Distortion]
e|-----------------|-----------------|-----------------|-----------------|
b|-----------------|-----------------|-----------------|-----------------|
g|-5---------------|-5---------------|-7---------------|-7----/----11----|
d|-5---------------|-5---------------|-7---------------|-7----/----11----|
a|-3---------------|-3---------------|-5---------------|-5----/----9-----|
D|-----------------|-----------------|-----------------|-----------------|
 
e|-----------------|-----------------|-----------------|-----------------|
b|-----------------|-----------------|-----------------|-----------------|
g|-9---------------|-9---------------|-4--------5------|-7-------14------|
d|-9---------------|-9---------------|-4--------5------|-7-------14------|
a|-7---------------|-7---------------|-2--------3------|-5-------12------|
D|-----------------|-----------------|-----------------|-----------------|

e|-----------------|-----------------|-----------------|-----------------|
b|-----------------|-----------------|-----------------|-----------------|
g|-5---------------|-5---------------|-7---------------|-7----/----11----|
d|-5---------------|-5---------------|-7---------------|-7----/----11----|
a|-3---------------|-3---------------|-5---------------|-5----/----9-----|
D|-----------------|-----------------|-----------------|-----------------|
 
e|-----------------|-----------------|-----------------|-----------------|
b|-----------------|-----------------|-----------------|-----------------|
g|-9---------------|-11------12------|-4---------------|-4---------------|
d|-9---------------|-11------12------|-4---------------|-4---------------|
a|-7---------------|-9-------10------|-2---------------|-2---------------|
D|-----------------|-----------------|-----------------|-----------------|
[ Tab from: http://www.guitartabs.cc/tabs/0-9/30_seconds_to_mars/kill_tab_ver_3.html ]
[Bridge] Guitar 1 & 2 [Ditsortion] Its a keyboard playing under the riffs!
e|-----------------|-----------------|-----------------|-----------------|
b|-----------------|-----------------|-----------------|-----------------|
g|-2---------------|-4---------------|-9---------------|-9---------------|
d|-2---------------|-4---------------|-9---------------|-9---------------|
a|-0---------------|-2---------------|-7---------------|-7---------------|
D|-----------------|-----------------|-----------------|-----------------|
 
e|-----------------|-----------------|-----------------|-----------------|
b|-----------------|-----------------|-----------------|-----------------|
g|-5---------------|-7---------------|-9---------------|-9---------------|
d|-5---------------|-7---------------|-9---------------|-9---------------|
a|-3---------------|-5---------------|-7---------------|-7---------------|
D|-----------------|-----------------|-----------------|-----------------|

e|-----------------|-----------------|-----------------|-----------------|
b|-----------------|-----------------|-----------------|-----------------|
g|-5---------------|-7---------------|-9---------------|-9---------------|
d|-5---------------|-7---------------|-9---------------|-9---------------|
a|-3---------------|-5---------------|-7---------------|-7---------------|
D|-----------------|-----------------|-----------------|-----------------|
 
e|-----------------|-----------------|-----------------|-----------------|
b|-----------------|-----------------|-----------------|-----------------|
g|-5---------------|-7---------------|-9---------------|-9---------------|
d|-5---------------|-7---------------|-9---------------|-9---------------|
a|-3---------------|-5---------------|-7---------------|-7---------------|
D|-----------------|-----------------|-----------------|-----------------|

[Break] 3 guitar with odd effect
d|-----------------------------------------------------------------------|
a|-7-7-7-7-7-7-7-7-7-7-7-7-7-7-7-7-7-7-7-7-7-7-7-7-7-7-7-7-7-7-7-7-7-7-7-|
D|-----------------------------------------------------------------------|

e|-----------------|-----------------|-----------------|-----------------|
b|-----------------|-----------------|-----------------|-----------------|
g|----------55555--|----------55555--|----------55555--|-16--------------|
d|----------55555--|----------55555--|----------55555--|--x--------------|
a|----------33333--|----------33333--|----------33333--|-14--------------|
D|-----------------|-----------------|-----------------|-----------------|
 
e|-----------------|-----------------|-----------------|-----------------|
b|-----------------|-----------------|-----------------|-------------15--|
g|-16--------------|-14--------------|-12--------------|-161416141614--14|
d|--x--------------|--x--------------|--x--------------|-----------------|
a|-14--------------|-12--------------|-10--------------|-----------------|
D|-----------------|-----------------|-----------------|-----------------|

[Chorus 3] Guitar 1 & 2 [Distortion] With variations!
e|-----------------|-----------------|-----------------|-----------------|
b|-----------------|-----------------|-----------------|-----------------|
g|-5---------------|-5---------------|-7---------------|-7----/----11----|
d|-5---------------|-5---------------|-7---------------|-7----/----11----|
a|-3---------------|-3---------------|-5---------------|-5----/----9-----|
D|-----------------|-----------------|-----------------|-----------------|
 
e|-----------------|-----------------|-----------------|-----------------|
b|-----------------|-----------------|-----------------|-----------------|
g|-9---------------|-9---------------|-4--------5------|-7-------14------|
d|-9---------------|-9---------------|-4--------5------|-7-------14------|
a|-7---------------|-7---------------|-2--------3------|-5-------12------|
D|-----------------|-----------------|-----------------|-----------------|

e|-----------------|-----------------|-----------------|-----------------|
b|-----------------|-----------------|-----------------|-----------------|
g|-5---------------|-5---------------|-7---------------|-7----/----11----|
d|-5---------------|-5---------------|-7---------------|-7----/----11----|
a|-3---------------|-3---------------|-5---------------|-5----/----9-----|
D|-----------------|-----------------|-----------------|-----------------|
 
e|-----------------|-----------------|-----------------|-----------------|
b|-----------------|-----------------|-----------------|-----------------|
g|-9---------------|-11------12------|-4---------------|-4---------------|
d|-9---------------|-11------12------|-4---------------|-4---------------|
a|-7---------------|-9-------10------|-2---------------|-2---------------|
D|-----------------|-----------------|-----------------|-----------------|

[Outro] Guitar 1 [Tomo] Fading out....
e|-----------------|-----------------|-----------------|-----------------|
b|-----------------|-----------------|-----------------|-----------------|
g|-12p9------------|-12p9------------|-12p9------------|-12p9------------|
d|------12p9h10p9--|------12p9h10p9--|------12p9h12p10-|------12p9h12p10-|
a|-----------------|-----------------|-----------------|-----------------|
D|-----------------|-----------------|-----------------|-----------------|
 
e|-----------------|-----------------|-----------------|-----------------|
b|-----------------|-----------------|-----------------|-----------------|
g|--------12-------|--------12-------|--------12-------|---------12------|
d|-9-10-9----9-----|-9-10-9----9-----|-9-10-9----9-----|--9-10-9----9----|
a|-----------------|-----------------|-----------------|-----------------|
D|-----------------|-----------------|-----------------|-----------------|

e|-----------------|-----------------|-----------------|-----------------|
b|-----------------|-----------------|-----------------|-----------------|
g|-12p9------------|-12p9------------|-12p9------------|-12p9------------|
d|------12p9h10p9--|------12p9h10p9--|------12p9h12p10-|------12p9h12p10-|
a|-----------------|-----------------|-----------------|-----------------|
D|-----------------|-----------------|-----------------|-----------------|
 
e|-----------------|-----------------|-----------------|-----------------|
b|-----------------|-----------------|--------10-------|---------12------|
g|--------12-------|--------12-------|-----------------|-----------------|
d|-9-10-9----9-----|-9-10-9----9-----|-9-10-9----9-----|--9-10-9----9----|
a|-----------------|-----------------|-----------------|-----------------|
D|-----------------|-----------------|-----------------|-----------------|