30 Seconds To Mars - Battle Of One Chords & Tabs

 

Battle Of One Chords & Tabs

30 Seconds To Mars Chords & Tabs

Version: 1 Type: Tab

Battle Of One Tab

Intro/Verses

D|-------------------------------------------------------------------------|
A|-------------------------------------------------------------------------|
F|-------------------------------------------------------------------------|
C|------0-0-0-0-------0-0-0-0---------0-0-0-0------------------------------|
G|---3--------------3---------------3--------------------------------------|
C|-0--------------0---------------0----------------------------------------|

(Repeat lots of times)

Bit at 17 seconds roughly

D|----------------|--------------------------------------------------------|
A|----------------|--------------------------------------------------------|
F|----------------|--------------------------------------------------------|
C|-1-1-1-0-0------|-------0-0-0-0----------REPEAT--------------------------|
G|--------------3-|----3---------------------------------------------------|
C|----------------|--0-----------------------------------------------------|

Chorus intro part:
[ Tab from: http://www.guitartabs.cc/tabs/0-9/30_seconds_to_mars/battle_of_one_tab.html ]
D|-------------------------------------------------------------------------|
A|-------------------------------------------------------------------------|
F|-------------------------------------------------------------------------|
C|-0-1-0-3-0-5-0---then back to---------------0-0-0-0-0--------------------|
G|-----------------------------------------3-------------------------------|
C|--------------------------------------0----------------------------------|
 
Chorus middle/end part: 

D|-----10-10-10-10-10-10-10-12-12-12-12-12-13-13---------------------------|
A|-13----------------------------------------------------------13----------|
F|-------------------------------------------------------------------------|
C|-------------------------------------------------------------------------|
G|-------------------------------------------------------------------------|
C|-------------------------------------------------------------------------|

Thatís the majority of it, except for a little solo part which I tabbed out,
decided it was crap, and then didnít bother retabbing as itís similar to parts.
Iím not really sure how accurate to the song it really is, but it sounds pretty
decent on my current set-up of my fancy-shmancy Marshall 250DFX amp, Boss DS-1
Distortion Pedal and my Maverick X1 guitar.

Donít shoot me if you donít like it!