2x - La Fuerza Policial Chords & Tabs

 

La Fuerza Policial Chords & Tabs

2x Chords & Tabs

Version: 1 Type: Tab 0 ratings
1 star 2 stars 3 stars 4 stars 5 stars
comments

La Fuerza Policial Tab

TAB  : La Fuerza Policial
Grupo: 2X
Transcrita por: Carlos Carrasco [RTS]_Rage ** Chile(Temuco)
[rts_rage@latinmail.com]
FECHA:04/01/2003


  P.M_ _ _ _ _ _ _ _| P.M_ _ _ _ _ _ _ | P.M_ _ _ _ _ _ _ | P.M_ _ _ _ _ _ _| 
E|-------------------|------------------|------------------|-----------------|
B|T------------------|------------------|------------------|-----------------|
G|A------------------|------------------|------------------|-----------------|
D|B------------------|------------------|------------------|-----------------|
A|----------3-2-0-2--|----------3-2-0-2-|----------3-2-0-2-|---------3-2-0-2-|
E|-2-2-5-2-----------|-2-2-5-2----------|-2-2-5-2----------|-2-2-5-2---------|

[ Tab from: http://www.guitartabs.cc/tabs/0-9/2x/la_fuerza_policial_tab.html ]
  P.M_ _ _ _ _ _ _ _| P.M_ _ _ _ _ _ _ | P.M_ _ _ _ _ _ _ | P.M_ _ _ _ _ _ _| 
E|-------------------|------------------|------------------|-----------------|
B|T------------------|------------------|------------------|-----------------|
G|A------------------|------------------|------------------|-----------------|
D|B------------------|------------------|------------------|-----------------|
A|----------3-2-0-2--|----------3-2-0-2-|----------3-2-0-2-|-----------------|
E|-2-2-5-2-----------|-2-2-5-2----------|-2-2-5-2----------|-2-2-5-2---------|


  P.M_ _ _ _ _ _ _ | P.M_ _ _ _ _ _ _ | P.M_ _ _ _ _ _ _ | P.M_ _ _ _ _ _ _ |
E|------------------|------------------|------------------|------------------|
B|T-----------------|------------------|------------------|------------------|
G|A-----------------|------------------|------------------|------------------|
D|B-----------------|------------------|------------------|------------------|
A|------------------|------------------|------------------|------------------|
E|-0-2-2-2-0-3------|-0-2-2-2-0-3------|-0-2-2-2-0-3------|-0-1-1-0-1-1------|

  P.M_ _ _ _ _ _ _ _ _ _ _ _ _ |
E|------------------------------|
B|T-----------------------------|
G|A-----------------------------|
D|B-----------------------------|
A|------------------------------|
E|-1-0-0-1-0-0-1-0-0----1-1-1-1-|

Viva Chile Mierda!!!
Esta la baje de la pagina de 2x [www.2x.cl]
y la modifique para este tipo de archivo.
Comments