2pac Feat. Nas - Thug'z Mansion Chords & Tabs

 

Thug'z Mansion Chords & Tabs

2pac Feat. Nas Chords & Tabs

Version: 1 Type: Tab 2 ratings
1 star 2 stars 3 stars 4 stars 5 stars
comments

Thug'z Mansion Tab

2pac feat. Nas acoustic
Better days

This song sounds great but u have 2 listen 2 the song to get the rhythm right
It is standard tuning so have fun learning it

--------------------------------------------------------4s6s4----------
----------------------4-----4-----------------4--4----4----------------
----4s3-4s3-----------5-----5---65------------5--5---------------------
----------------------6-----6------ -86--------------------------------
--------------------------------------------3--------------------------
----------------4-------------------------4----------------------------
[ Tab from: http://www.guitartabs.cc/tabs/0-9/2pac_feat_nas/thugz_mansion_tab.html ]
----------------------------------------6---------6--------------------
---2---4----4s6-----4s6s4--------2--4---5------5-----------------------
---1---3----3s5------------------1--3---6---6--------6-----------------
-----------------------------------------------------------------------
-----------------------------------------------------------------------
-----------------------------------------------------------------------

---------------x------------------4s6-4s6s4----------------------------
-------4----4--x---------4--4----4-------------------------------------
-------5----5--x---------5--5------------------------------------------
-------6----6--x-------------------------------------------------------
---------------x-----3-------------------------------------------------
---4-----------x-------------------------------------------------------

----------------------------------------6-----------6------------------
---2---4----4s6-----------2--4---5------5---------5--------------------
---1---3----3s5-----------1--3---6------6------6--------6--------------
-----------------------------------------------------------------------
-----------------------------------------------------------------------
-----------------------------------------------------------------------
Written by Adrian k L

s= slide
x= slap





Comments