2ne1 - Lonely Chords & Tabs

 

2ne1 Chords & Tabs

Version: 1 Type: Bass Tab 0 ratings
1 star 2 stars 3 stars 4 stars 5 stars
comments

Lonely Bass Tab

Tabbed by: SourChicken
E-Mail: sourchicken@gmail.com


Due to popular demand, here's the bass tab for 2NE1's lonely.

And for reference, here's the cover that I originally uploaded:
http://www.youtube.com/watch?v=Y3k2_CA7UFU


0:20
|-------------------------|
|--------6--13\---/9-9----|
|--7--14\------4------9---|
|----------------------7--|

|--------------------------|
|--------6--13\---/10-12\--|
|--7--14\------4-----------|
|--------------------------|

|------------------------------|
|-----------6------------------|
|--7-7\---/6-6---4-4\2--2-4-6--|
|------4------4----------------|

|----------------6\---|
|--------------/6-----|
|--7-7\---6-4------2--|
|------4---4----------|

|--------------------------------|
|-------------6------------------|
|-----------/6-6-4--44-2--2-4-6--|
|--0-0-00-4----------------------|

|-------------------------|
|----------------------0--|
|-----------6--4---4-3----|
|--0--00-4----4---4-------|

1:42
|-------------------------|
|--------6--13\---/9-9----|
|--7--14\------4------9---|
|----------------------7--|
[ Tab from: http://www.guitartabs.cc/tabs/0-9/2ne1/lonely_btab.html ]
|--------------------------|
|--------6--13\---/10-12\--|
|--7--14\------4-----------|
|--------------------------|

|--------------------------------|
|-------------6------------------|
|--7-079\---/6-6-4--44-2--2-4-6--|
|--------4-----------------------|

|----------------------------|
|----------------------/15\--|
|--7-079\---6-4--44-2--------|
|--------4---4---------------|

|------------------------------|
|------------6-----------------|
|--7-079\--/6-6-4--4\2--2-4-6--|
|--------4--------4------------|

|-------------------------|
|------------6---------0--|
|--7-079\--/6-6-4--4-3----|
|--------4--------4-------|

2:43
|---------------------6----4-6-8\--|
|------------6------/6-6\----------|
|--7-079\--/6-6---4------2---------|
|--------4-----4-------------------|

|-----------------------------|
|------------6----------/15\--|
|--7-079\--/6-6-4--4-2--------|
|--------4--------4-----------|

|----------------------------------|
|----------4h6---------------------|
|--7--7\------4h6---4--4-2--2-4-6--|
|-------4--------4----4-4----------|

|-------------------------|
|------------6---------0--|
|--7-079\--/6-6-4--4-3----|
|--------4--------4-------|
Comments