2ne1 - Come Back Home Acoustic Chords & Tabs

 

Come Back Home Acoustic Chords & Tabs

2ne1 Chords & Tabs

Version: 1 Type: Tab 0 ratings
1 star 2 stars 3 stars 4 stars 5 stars
comments

Come Back Home Acoustic Tab

2NE1 - Come Back Home (Unplugged Ver.)
tabbed by youtube.com/gmmabellex

Standard Tuning
Capo 3rd fret

Verse 1 & 2  (* = tap)
e|-----0--*--0~---*--0--*--|-------------------------|-----3--*-----------|----------0---------|
b|-----1--*--1~---*--1--*--|-----3--*--3~---*--3--*--|-----3--*--3~----3--|---1(S)----1-----3--|
g|----0---*--0~---*--0--*--|----4---*--4~---*--4--*--|----5---*--4~----4--|---2(T)--2--2~---4--|
D|---2----*--2~---*--2--*--|---5----*--5~---*--5--*--|---5----*--5~----5--|---3(R)----------5--|
A|--0-----*--0~---*--0--*--|--------*-------*-----*--|--3-----*-----------|---3(U)-------------|
E|--------*----------------|--3-----*--3~---*--3--*--|--------*--3~---3---|---1(M)-------0--3--|

e|-----0--*--0~---*--0--*--|-------------------------|-----3--*-----------|----------0---------|
b|-----1--*--1~---*--1--*--|-----3--*--3~---*--3--*--|-----3--*--3~----3--|---1(S)----1-----3--|
g|----0---*--0~---*--0--*--|----4---*--4~---*--4--*--|----5---*--4~----4--|---2(T)--2--2~---4--|
D|---2----*--2~---*--2--*--|---5----*--5~---*--5--*--|---5----*--5~----5--|---3(R)----------5--|
A|--0-----*--0~---*--0--*--|--------*-------*-----*--|--3-----*-----------|---3(U)-------------|
E|--------*----------------|--3-----*--3~---*--3--*--|--------*--3~---3---|---1(M)-------0--3--|

Pre-chorus
e|-------------------------|-------3---3-------------|-----------------------0--0~--|
b|-------6---6----3---3----|----------------1---1----|------6---6---3---3-----------|
g|------7---7----4---4-----|------5---5----2---2-----|-----7---7---4---4---0--0-----|
D|-----7---7----5---5------|-----5---5----3---3------|----7---7---5---5---2--2------|
A|----5---5----------------|----3---3----------------|---5---5-----------0--0-------|
E|-------------3---3-------|-------------1---1-------|-----------3---3--------------|

[ Tab from: http://www.guitartabs.cc/tabs/0-9/2ne1/come_back_home_acoustic_tab.html ]
Chorus
(Just listen and watch the guitar video to figure out the strumming pattern)
e|-------------------|--3-3-3-3-3-3-3-3--|--0-0-0-0-0-0-0-0--|--0-0-0-0-0-0-0-0--|
b|--1-1-1-1-1-1-1-1--|--3-3-3-3-3-3-3-3--|--0-0-0-0-0-0-0-0--|--1-1-1-1-1-1-1-1--|
g|--2-2-2-2-2-2-2-2--|--5-5-5-5-5-5-5-5--|--1-1-1-1-1-1-1-1--|--2-2-2-2-0-0-0-0--|
D|--3-3-3-3-3-3-3-3--|--5-5-5-5-5-5-5-5--|--2-2-2-2-0-0-0-0--|--2-2-2-2-2-2-2-2--|
A|--3-3-3-3-3-3-3-3--|--3-3-3-3-3-3-3-3--|--2-2-2-2-2-2-2-2--|--0-0-0-0-0-0-0-0--|
E|--1-1-1-1-1-1-1-1--|-------------------|--0-0-0-0-0-0-0-0--|-------------------|

e|-------------------|--3-3-3-3-3-3-3-3--|--0-0-0-0-0-0-0-0--|--1-1-1-1-1-1-1-1--|
b|--1-1-1-1-1-1-1-1--|--3-3-3-3-3-3-3-3--|--0-0-0-0-0-0-0-0--|--1-1-1-1-1-1-1-1--|
g|--2-2-2-2-2-2-2-2--|--5-5-5-5-5-5-5-5--|--1-1-1-1-1-1-1-1--|--2-2-2-2-2-2-2-2--|
D|--3-3-3-3-3-3-3-3--|--5-5-5-5-5-5-5-5--|--2-2-2-2-0-0-0-0--|--3-3-3-3-3-3-3-3--|
A|--3-3-3-3-3-3-3-3--|--3-3-3-3-3-3-3-3--|--2-2-2-2-2-2-2-2--|--3-3-3-3-3-3-3-3--|
E|--1-1-1-1-1-1-1-1--|-------------------|--0-0-0-0-0-0-0-0--|--1-1-1-1-1-1-1-1--

Rap

e|-----0--*--0~---*--0--*--|-------------------------|-----3--*-----------|----------0---------|
b|-----1--*--1~---*--1--*--|-----3--*--3~---*--3--*--|-----3--*--3~----3--|---1(S)----1-----3--|
g|----0---*--0~---*--0--*--|----4---*--4~---*--4--*--|----5---*--4~----4--|---2(T)--2--2~---4--|
D|---2----*--2~---*--2--*--|---5----*--5~---*--5--*--|---5----*--5~----5--|---3(R)----------5--|
A|--0-----*--0~---*--0--*--|--------*-------*-----*--|--3-----*-----------|---3(U)-------------|
E|--------*----------------|--3-----*--3~---*--3--*--|--------*--3~---3---|---1(M)-------0--3--|

e|-----0--*--0~---*--0--*--|-------------------------|-----3--*-----------|----------0---------|
b|-----1--*--1~---*--1--*--|-----3--*--3~---*--3--*--|-----3--*--3~----3--|---1(S)----1--------|
g|----0---*--0~---*--0--*--|----4---*--4~---*--4--*--|----5---*--4~----4--|---2(T)--2--2~------|
D|---2----*--2~---*--2--*--|---5----*--5~---*--5--*--|---5----*--5~----5--|---3(R)-------------|
A|--0-----*--0~---*--0--*--|--------*-------*-----*--|--3-----*-----------|---3(U)-------------|
E|--------*----------------|--3-----*--3~---*--3--*--|--------*--3~---3---|---1(M)-------------|
Comments