2 Skinnee Js - Riot Nrrrd Chords & Tabs

 

Riot Nrrrd Chords & Tabs

2 Skinnee Js Chords & Tabs

Version: 1 Type: Bass Tab 0 ratings
1 star 2 stars 3 stars 4 stars 5 stars
comments

Riot Nrrrd Bass Tab

   
Song: Riot Nrrrd
Band: 2 Skinnee J's
Album: Super mercado
tabbed by: Paul Jonak


G:---------------------|
D:---------------------|
A:---------------------|
E:---2-/-4-----4-4-4---|


G:------------------------|
D:------------------------|
A:---4--4---4-------------|
E:-------------2--2---2---|


G:-----------------|
D:-----------------|
A:---3-3-3-3-1-1---|
E:-----------------|

[ Tab from: http://www.guitartabs.cc/tabs/0-9/2_skinnee_js/riot_nrrrd_btab.html ]
This next part is played a few times as is and then is alternated between 
a and d string.  

G:---------------------------|
D:---------------------------|
A:---1--1--/--4---4-4-\--1---|
E:---------------------------|


G:-------------------------|
D:---3-3-3-3-1-1-1-1-------|
A:-------------------4-4---|
E:-------------------------|


There are all of the parts.  Listen to the song to tell where they go, 
exactly how many times each note is played and how many times each part 
is repeated.  





Comments