28 Days - Whats The Deal Chords & Tabs

 

Whats The Deal Chords & Tabs

28 Days Chords & Tabs

Version: 3 Type: Tab 0 ratings
1 star 2 stars 3 stars 4 stars 5 stars
comments

Whats The Deal Tab

Band: 28 Days
Song: Whats the deal?
Tabbed by: Chris Haysom

Any comments or corrections email me: chaysom@hotmail.com

Standard Tuning


Verse 1 x4

e|-------------------------------------------------------|
B|-------------------------------------------------------|
G|-------------------------------------------------------|
D|---2---2--5---2h3-3-2-2-3-3-3p2------------------------|
A|-3---3--------------------------3----------------------|
E|-------------------------------------------------------|

Pre-Chorus x4: Use like a phaser or sumfen (i dunno) to get the effect he uses
or if you dont have an fx pedal just sorta strum the power chord once really
hard and sorta fade it off urself with ur wrist like a palm mute thing. Sorry
if that didnt make sense. 

e|-------------------------------------------------------|
B|-------------------------------------------------------|
G|--5555555----------------------------------------------|
D|--5555555---2------3\\55555555-------------------------|
A|--3333333---2rest--3\\55555555-------------------------|
E|------------0------1\\33333333-------------------------|

Chorus

Fig. 1

e|-------------------------------------------------------|
B|-------------------------------------------------------|
G|-5555--------7777---10-9-10-9--------------------------|
D|-5555--5555--7777----x-x--x-x--------------------------|
A|-3333--5555--5555----8-7--8-7--------------------------|
E|-------3333--------------------------------------------|

Fig. 2
                                    10-9
Same as Fig. 1 except you strum the  x-x part a bit differently. 
                                     8-7

                                          9
Repeat Fig. 1 twice and on the very last  x

                      5
the 2nd time go to a  x so it sounds better going into the verse again.
                                           

Verse 2

e|-------------------------------------------------------|
B|-------------------------------------------------------|
G|-------------------------------------------------------|
D|---2---2--5---2h3-3-2-2-3-3-3p2------------------------|
A|-3---3--------------------------3----------------------|
E|-------------------------------------------------------|  x2

[ Tab from: http://www.guitartabs.cc/tabs/0-9/28_days/whats_the_deal_tab_ver_3.html ]
e|-------------------------------------------------------|
B|-------------------------------------------------------|
G|--5555555----------------------------------------------|
D|--5555555---2------3\\55555555-------------------------|
A|--3333333---2rest--3\\55555555-------------------------|
E|------------0------1\\33333333-------------------------|  x4

Chorus 2 x1

I dont know the next bit but i just play this instead.
I play it 2 different ways. Its up to you which you play.

e|---0---0-3-0-1-1-0-0-1-1-1-0---------------------------|
B|-1---1-------------------------1-----------------------|
G|-------------------------------------------------------|
D|-------------------------------------------------------|
A|-------------------------------------------------------|
E|-------------------------------------------------------| x2

                          OR

e|-------------------------------------------------------|
B|-----------8-------------------------------------------|
G|----9----9---9-10-10-9-9-10-10-10-9--------------------|
D|-10---10----------------------------10-----------------|
A|-------------------------------------------------------|
E|-------------------------------------------------------| x2

Bridge/Interlude (whatever you wanna call it)

e|-------------------------------------------------------|
B|-------------------------------------------------------|
G|-------------------------------------------------------|
D|---2---2--5---2h3-3-2-2-3-3-3p2------------------------|
A|-3---3--------------------------3----------------------|
E|-------------------------------------------------------| x2

The next bit is just drums and bass, but ive seen em play live
on tv and i think he just plays a C powerchord over and over
(this prob isnt right either). Listen to the song for how many
times you play it.

Chorus (same as Chorus 2)

Outro

e|---0---0-3-0-1-1-0-0-1-1-1-0---------------------------|
B|-1---1-------------------------1-----------------------|
G|-------------------------------------------------------|
D|-------------------------------------------------------|
A|-------------------------------------------------------|
E|-------------------------------------------------------| 

                          OR

e|-------------------------------------------------------|
B|-----------8-------------------------------------------|
G|----9----9---9-10-10-9-9-10-10-10-9--------------------|
D|-10---10----------------------------10-----------------|
A|-------------------------------------------------------|
E|-------------------------------------------------------|

Well thats it, isnt the best job anyone could do but i dont care.
Anyone that has better one can put it up i guess. And the way i did
it is prob confusing for some... sorry!
Comments