28 Days - Take Me Away Chords & Tabs

 

Take Me Away Chords & Tabs

28 Days Chords & Tabs

Version: 3 Type: Tab 0 ratings
1 star 2 stars 3 stars 4 stars 5 stars
comments

Take Me Away Tab

Take Me Away - 28 Days
album : Stealing Chairs
tabbed by Brendan

standard tuning
palm mute : *
hammer on : h

INTRO
e---------------------------------------------------|
B---------------------------------------------------|
G---7----9----7----9-----7---7----9----7----9-----7-|
D--7----7----7----7----7----5----5----5----5----5---|
A---------------------------------------------------|
E---------------------------------------------------|

VERSE 1                                                        
e------------------------------------------------------------ \ 
B------------------------------------------------------------  \ 
G--7-7-7-7-7-6-6-7-7-7-7-6-7-6-------------------------------   \ play this 
D--7-7-7-7-7-6-6-7-7-7-7-6-7-6--5-5-5-5-5-4-4-5-5-5-5-4-5-4--   / part x 2
A--5-5-5-5-5-4-4-5-5-5-5-4-5-4--5-5-5-5-5-4-4-5-5-5-5-4-5-4--  /
E-------------------------------3-3-3-3-3-2-2-3-3-3-3-2-3-2-- /
 
e------------------------------------------------------------
B------------------------------------------------------------
G--7*7*7*7*7*7*7*7*-7*7*7*7*7*7*-----------------------------
D--7*7*7*7*7*7*7*7*-7*7*7*7*7*7*-5--5-5-5-4-4-5-5-5-5-4-5-4--
A--5*5*5*5*5*5*5*4*-4*4*4*4*4*4*-5--5-5-5-4-4-5-5-5-5-4-5-4--
E--------------------------------3--3-3-3-2-2-3-3-3-3-2-3-2--

e------------------------------------------------------------|
B------------------------------------------------------------| 
G--7-7-7-7-7-6-6-7-7-7-7-6-7-6-------------------------------|   
D--7-7-7-7-7-6-6-7-7-7-7-6-7-6--5-5-5-5-5-4-4-5-5-5-5-4-5-4--|  
A--5-5-5-5-5-4-4-5-5-5-5-4-5-4--5-5-5-5-5-4-4-5-5-5-5-4-5-4--|  
E-------------------------------3-3-3-3-3-2-2-3-3-3-3-2-3-2--|

CHORUS - the first riff of the chorus sounds very similar to the guitar
in the verse, but that is because the bass is playing the verse riff,
while the guitar just supports it with some simple powerchords.
e------------------------------------------------------------------- \
B--10101010101010101010101010101010---------------------------------  \
G--7-7-7-7-7-7-7-7-7-7-7-7-7-7-7-7-7-7-7-7-7-7-7-7-7-7-7-7-7-7-7-7--   \ play this
D----------------------------------5-5-5-5-5-5-5-5-5-5-5-5-5-5-5-5--   / part x 2
A-------------------------------------------------------------------  /
E------------------------------------------------------------------- /
[ Tab from: http://www.guitartabs.cc/tabs/0-9/28_days/take_me_away_tab_ver_3.html ]
second riff
e----------------------------------------------------------| \
B----------------------------------------------------------|  \
G--5--5--5-5-5---------------------------------------------|   \ play this
D--3--3--3-3-35--5-5--5/7--7--7-7--7-7-7-------------------|   / part x 2
A-------------3--3-3--3/5--5--5-5--5-5-5--5h7-7-7-5h7-5h7--|  /
E----------------------------------------------------------| /

VERSE 2
e------------------------------------------------------------
B------------------------------------------------------------
G--7*7*7*7*7*7*7*7*-7*7*7*7*7*7*-----------------------------
D--7*7*7*7*7*7*7*7*-7*7*7*7*7*7*-5--5-5-5-4-4-5-5-5-5-4-5-4--
A--5*5*5*5*5*5*5*4*-4*4*4*4*4*4*-5--5-5-5-4-4-5-5-5-5-4-5-4--
E--------------------------------3--3-3-3-2-2-3-3-3-3-2-3-2--

e------------------------------------------------------------| 
B------------------------------------------------------------| 
G--7-7-7-7-7-6-6-7-7-7-7-6-7-6-------------------------------|  
D--7-7-7-7-7-6-6-7-7-7-7-6-7-6--5-5-5-5-5-4-4-5-5-5-5-4-5-4--|
A--5-5-5-5-5-4-4-5-5-5-5-4-5-4--5-5-5-5-5-4-4-5-5-5-5-4-5-4--| 
E-------------------------------3-3-3-3-3-2-2-3-3-3-3-2-3-2--|

INTERLUDE - the first bit of this i haven't really worked out; it's just
a bit of hitting the 7th and 6th frets on G. the next bit is something like
this...
e-------------------------------------------------------------------------- \
B--------------------------------------------------------------------------  \
G--7-6---6-7-6---6-7-6---6-7-6---------------------------------------------   \ play this
D------7-------7-------7-------7-7-7...just kind of keep fading this note--   / part x 2
A--------------------------------------------------------------------------  /
E-------------------------------------------------------------------------- /

the next bit of the interlude sounds like this, i'm pretty sure this is right
e-----------------------------------------------------------------|
B-----------------------------------------------------------------|
G--7-7-7-7-7-7-7-7-7-7-7-7-4-4-4-5-5-5-5-5-5-5-5-5-5-5-5-5-5-5-5--|
D--7-7-7-7-7-7-7-7-7-7-7-7-4-4-4-5-5-5-5-5-5-5-5-5-5-5-5-5-5-5-5--|
A-----------------------------------------------------------------|
E-----------------------------------------------------------------|



ORDER
INTRO x 3
VERSE 1
CHORUS
VERSE 2
INTERLUDE
CHORUS - second riff x 4
INTRO - slowly fade the first 8 notes out
Comments