28 Days - Rip It Up Chords & Tabs

 

Rip It Up Chords & Tabs

28 Days Chords & Tabs

Version: 1 Type: Tab 0 ratings
1 star 2 stars 3 stars 4 stars 5 stars
comments

Rip It Up Tab

28 days
Rip It UP
tabbed by brett needham
if you have any problems with song e-mail me at
cowsonparade@yahoo.com

^= slide up\down fret board

inrto

e|--------------------------
b|--------------------------
g|--------4-4--7-6^4^6-6-6--
d|---6-6--4-4--7-6^4^6-6-6--
a|---6-6--2-2--5-4^2^4-4-4--
e|---4-4--------------------

verse

e|--------------------------
b|--------------------------
g|---------4-4xx-7-6-4^6-6-6--
d|---6-6xx-4-4xx-7-6-4^6-6-6--
a|---6-6xx-2-2xx-5-4-2^4-4-6--
e|---4-4xx------------------

bit at end of verse
[ Tab from: http://www.guitartabs.cc/tabs/0-9/28_days/rip_it_up_tab.html ]
e|----------------------------------
b|----------------------------------
g|---------4-4xx-66666666-77777777--
d|---6-6xx-4-4xx-66666666-77777777--
a|---6-6xx-2-2xx-44444444-55555555--
e|---4-4xx--------------------------

chorus

e|--------------------------------
b|--------------------------------
g|---4444xx-----------------------
d|---4444xx-666x-555xx5xx5xx5--
a|---2222xx-666x-555xx5xx5xx5--
e|----------444x-333xx3xx3xx3--

bit at end of chorus

e|--------------------------------------------
b|--------------------------------------------
g|---4444xx-------666666-999999---------------
d|---4444xx-666xx-666666-999999-xx5xx5xx5xx5--
a|---2222xx-666xx-444444-777777-xx5xx5xx5xx5--
e|----------444xx---------------xx3xx3xx3xx3--

Bridge

e|-------------------------
b|-------------------------
g|-------------------------
d|---------5-6-7-5^77-6-5--
a|---7-7-7-----------------
e|-------------------------
Comments