28 Days - Rip It Up Chords & Tabs

 

Rip It Up Chords & Tabs

28 Days Chords & Tabs

Version: 2 Type: Bass Tab 0 ratings
1 star 2 stars 3 stars 4 stars 5 stars
comments

Rip It Up Bass Tab

BTAB: Rip It Up
ARTIST: 28 Days
ALBUM: Upstyledown
AUTHOR: Jack Moggach
EMAIL: j.m@ihateclowns.com
DATE: 07/22/00

Original tab by Todd Ford (ToddFord@HotMail.com)

My version of Rip it Up - I think it's 100%
correct. Please shower me with abuse if I'm wrong.

h - hammer on

Track starts with Lead Guitar - but part sounds
good on Bass.

G-----------------------------------|
D-----------------------------------|* x2
A---------2---2---4h5-4--2h4-2--2---|*
E-4---4-----------------------------|
	       
This part is played by lead during the verse
but bass has a variant on the part.

G--------------------------------4---2--|
D---------------------------------------|* x5
A---------2---2----5--5--4--4--2---0----|*
E-4---4---------------------------------|

Then verse into chorus.

G---------------------------------------|
D---------------------------------------|
A---------2---2---4444444455555---------|
E-4---4---------------------------------|
			    (did you hear that shit...)



Chorus
G--------------------------------|
D--------------------------------|* x2
A-2-----2------------------------|*
E-----------4--4---3--3--3--3----|

then

G--------------------------------|-------------------------------
D------------------------2---2---|-------------------------------
A-2-----2---------4---4----------|-------------------------------
E-----------4--4-----------------|-3--3-3-3-3-3-3-3-3-3-3-3--etc.

Next is a little bass break with Jedi Master Jay 
scratching in the background. It is just the bass 
verse riff twice.
[ Tab from: http://www.guitartabs.cc/tabs/0-9/28_days/rip_it_up_btab_ver_2.html ]
G--------------------------------4---2--|
D---------------------------------------|* x5
A---------2---2----5--5--4--4--2---0----|*
E-4---4---------------------------------|

Then verse 3 times

G--------------------------------4---2--|
D---------------------------------------|* x3
A---------2---2----5--5--4--4--2---0----|*
E-4---4---------------------------------|

Then Verse into Chorus

G---------------------------------------|
D---------------------------------------|
A---------2---2---4444444455555---------|
E-4---4---------------------------------|

Then Chorus

G--------------------------------|
D--------------------------------|* x2
A-2-----2------------------------|*
E-----------4--4---3--3--3--3----|

G--------------------------------|-------------------------------
D------------------------2---2---|-------------------------------
A-2-----2---------4---4----------|-------------------------------
E-----------4--4-----------------|-3--3-3-3-3-3-3-3-3-3-3-3--etc.


Lead Guitar Bridge - Can be played on Bass

G---------------------------------------|
D---------5-6-7--7--7h6h7-6-5-----------| x6
A-7--7-77-------------------------------|
E---------------------------------------|

There are two variants -

2nd Time
G---------------------------------------|   
D---------5-6-7--(let ring)-------------|
A-7--7-77-------------------------------|
E---------------------------------------|

last time
G---------------------------------------|
D---------5-6-7--(staccato)-------------|
A-7--7-77-------------------------------|
E---------------------------------------|


That should be enough - the rest of the song is similar.

After the last chorus just play repeated Gs (3rd fret,
E string for those bass players who only know tab).

Please support my friend and visit www.28dayshq.cjb.net and
sign the guestbook. 
Comments