28 Days - La Tune Chords & Tabs

 

La Tune Chords & Tabs

28 Days Chords & Tabs

Version: 1 Type: Tab 0 ratings
1 star 2 stars 3 stars 4 stars 5 stars
comments

La Tune Tab

La Tune
By 28 Days

Tabbed By : TCcracker84

TCcracker84@tccracker84.com
  
                              www.tccracker84.com
Standard Tuning
  
Intro part 1
--------                   ----------------
--------                   ----------------
---12---                   -11--11---9--9--
---12--- x12   then        -11--11---9--9--
---10---                   --9---9---7--7--
--------                   ----------------
                                         
Intro part 2                                         x2
--------                 ------------------
--------                 ------------------
---12---                 -11--11---14--14--
---12--- x12   then      -11--11---14--14--
---10---                 -9----9---12--12--     
--------                 ------------------
  
[ Tab from: http://www.guitartabs.cc/tabs/0-9/28_days/la_tune_tab.html ]
verse - just hit this chord a couple of times, you'll hear it
--------           ----------
--------           ----------
--------           ----------  
---5----  then     ----------    pick scrape....sort of bounce along the 
---5----           ----------    string to get it to sound right       
---3----           ----xxxx--
  

Chorus x 2
------------------------------------------
------------------------------------------
-------------7-7-7-7---9-9-9-9------------
---5-5-5-5---7-5-7-7---7-7-7-7---7-7-7-7--
---5-5-5-5---5-5-5-5---7-7-7-7---7-7-7-7--
---3-3-3-3-----------------------5-5-5-5--
  
---------------------------------------
---------------------------------------
-------------7-7-7-7---9-9-9-9-9-9-9-9-
---5-5-5-5---7-5-7-7---7-7-7-7-7-7-7-7-
---5-5-5-5---5-5-5-5---7-7-7-7-7-7-7-7-
---3-3-3-3-----------------------------
  
  
  
Bridge
-------------------------------
-------------------------------
---5-5-5-5-5-5-5-5-----7-------
---5-5-5-5-5-5-5-5-----7-------
---3-3-3-3-3-3-3-3-----5-------
-------------------------------
==
Comments