28 Days - Kool Chords & Tabs

 

Kool Chords & Tabs

28 Days Chords & Tabs

Version: 1 Type: Tab 0 ratings
1 star 2 stars 3 stars 4 stars 5 stars
comments

Kool Tab

28 days-kool.
Tabbed by dean horton-deansplace99@hotmail.com.
  
TABBED BY: DEAN HORTON


Intro/Verse - Use this progression, strumming is easy to work out

|---------------|
|---------------|
|-7-------------|
|-x--------4--5-|
|-5--4--5--2--3-|
|----2--3-------|

Pre chorus - use this progression, strumming is easy to work out

|------------|
|------------|
|------------|
|------------|
|-5--7--9--7-|
|-3--5--7--5-|

Chorus - Use this progression, strumming is easy to work out

|------------|
|------------|
|------------|
|-6--7--4----|
|-4--5--2--5-|
|----------3-|
[ Tab from: http://www.guitartabs.cc/tabs/0-9/28_days/kool_tab.html ]
Variation at the star of the second verse - Only the chords are shown

|------------------|
|------------------|
|-9--11--12--11--9-|
|-x---x---x---x--x-|
|-7---9--10---9--7-|
|------------------|

After second chorus - Just muck around with these chords, the strumming 
                      isn't shown

|----------------------------|
|----------------------------|
|-7--9--11--12--14--12-11--9-|
|-x--x---x---x---x---x--x--x-|
|-5--7---9--10--12--10--9--7-|
|----------------------------|

For the other parts played toward the end under the main riffs, just screw 
around with the octaves shown above
 
:: Ultimate Guitar Archive :: 
http://www.ultimate-guitar.com 



Comments