28 Days - Do Our Apart Chords & Tabs

 

Do Our Apart Chords & Tabs

28 Days Chords & Tabs

Version: 1 Type: Bass Tab 0 ratings
1 star 2 stars 3 stars 4 stars 5 stars
comments

Do Our Apart Bass Tab

Song:           Do Our Part
Band:           28 Days
Album:          28 Days
tabbed by:      Dase

INTRO/VERSE/CHORUS
G:---------------------------------------------------------------
D:-----------------------------------3---------------------------
A:----------1--1-1-1----/6-6-6-----------------------------------
E:----3-3-3---------------------1-1------------------------------
[ Tab from: http://www.guitartabs.cc/tabs/0-9/28_days/do_our_apart_btab.html ]
SECOND VERSE
G:---------------------------------------------------------------
D:---------------------------------------------------------------
A:---------------------------------------------------------------
E:-3\------------------------------------------------------------

BRIDGE
G:---------------------------------------------------------------
D:---------------------------------------------------------------
A:--------------------11-1-11-1-33-3-33--------------------------
E:-3-3-33-3----6-5-1---------------------------------------------
Comments