21 Pennies - On My Own Chords & Tabs

 

On My Own Chords & Tabs

21 Pennies Chords & Tabs

Version: 1 Type: Tab 0 ratings
1 star 2 stars 3 stars 4 stars 5 stars
comments

On My Own Tab

   
This is "On My Own" by the NJ band 21 Pennies.
The amount of times to play each chord might be off a little because I'm rushing to get this done.
INTRO
e--------------|--------------|
B--------------|--------------|
G-----7-------5|-----7-------5|
D-5---7---2---5|-5---7---2---5|
A-5---5---2---3|-5---5---2---3|
E-3-------0----|-3-------0----|

VERSE 1 
e----------------------------------------------------------------
B----------------------------------------------------------------
G-----------------7-7-7-7-7-7-7-7-----------------5-5-5-5-5-5-5-5
D-5-5-5-5-5-5-5-5-7-7-7-7-7-7-7-7-2-2-2-2-2-2-2-2-5-5-5-5-5-5-5-5
A-5-5-5-5-5-5-5-5-5-5-5-5-5-5-5-5-2-2-2-2-2-2-2-2-3-3-3-3-3-3-3-3
E-3-3-3-3-3-3-3-3-----------------0-0-0-0-0-0-0-0----------------

e--------------------------------------------------
B--------------------------------------------------
G-----------------7-7-7-7-7-7-7-7-----------------5(        )
D-5-5-5-5-5-5-5-5-7-7-7-7-7-7-7-7-2-2-2-2-2-2-2-2-5(ring out)
A-5-5-5-5-5-5-5-5-5-5-5-5-5-5-5-5-2-2-2-2-2-2-2-2-3(        )
E-3-3-3-3-3-3-3-3-----------------0-0-0-0-0-0-0-0--

CHORUS 
(3x)
e----------------------------
B----------------------------
G---7-9-9-9-9-5-5-5-5-5-5-5-5
D-5-7-9-9-9-9-5-5-5-5-5-5-5-5
A-5-5-7-7-7-7-3-3-3-3-3-3-3-3
E-3--------------------------
(1X)
e----------|----------
B----------|----------
G-----7---5|-----7---5
D-5---7---5|-5---7---5
A-5---5---3|-5---5---3
E-3--------|-3--------

BREAK (2nd Part Might Be A Little Off)
e------------------------------------------------------------------------
B------------------------------------------------------------------------
G-----------------4-5-5-5-5-5-5-5-5-4-----------------5-7-7-7-7-7-7-7-7-2
D-5-5-5-5-5-5-5-5-4-5-5-5-5-5-5-5-5-4-2-2-2-2-2-2-2-2-5-7-7-7-7-7-7-7-7-2
A-5-5-5-5-5-5-5-5-2-3-3-3-3-3-3-3-3-2-2-2-2-2-2-2-2-2-3-5-5-5-5-5-5-5-5-0
E-3-3-3-3-3-3-3-3---------------------0-0-0-0-0-0-0-0--------------------
[ Tab from: http://www.guitartabs.cc/tabs/0-9/21_pennies/on_my_own_tab.html ]
e---------------------------------------------------------------------
B---------------------------------------------------------------------
G-----------------4-7-7-7-7-7-7-7-7-5-9-9-9-9-9-9----7-5-5-5-5-5-5-5-5
D-5-5-5-5-5-5-5-5-4-7-7-7-7-7-7-7-7-5-9-9-9-9-9-9-10-7-5-5-5-5-5-5-5-5
A-5-5-5-5-5-5-5-5-2-5-5-5-5-5-5-5-5-3-7-7-7-7-7-7-7--5-3-3-3-3-3-3-3-3
E-3-3-3-3-3-3-3-3-----------------------------------------------------

VERSE 2
(3X)
e----------------------------------------------------------------
B----------------------------------------------------------------
G-----------------7-7-7-7-7-7-7-7-9-9-9-9-9-9-9-9-5-5-5-5-5-5-5-5
D-5-5-5-5-5-5-5-5-7-7-7-7-7-7-7-7-9-9-9-9-9-9-9-9-5-5-5-5-5-5-5-5
A-5-5-5-5-5-5-5-5-5-5-5-5-5-5-5-5-7-7-7-7-7-7-7-7-3-3-3-3-3-3-3-3
E-3-3-3-3-3-3-3-3------------------------------------------------
(1X)
e-----------------------------------------
B-----------------------------------------
G-----------------7-7-7-7-7-7-7-7-9---5---
D-5-5-5-5-5-5-5-5-7-7-7-7-7-7-7-7-9---5---
A-5-5-5-5-5-5-5-5-5-5-5-5-5-5-5-5-7---3---
E-3-3-3-3-3-3-3-3-------------------------

REPEAT CHORUS

BREAK 2
e----------------------------|-------------------------------------
B----------------------------|-------------------------------------
G------7-7--9-9--5-5--5-5-4-4|--------7-7-7--9-9-9--5-5-4-4-5-5-7-7
D-5-5--7-7--9-9--5-5--5-5-4-4|-5-5-5--7-7-7--9-9-9--5-5-4-4-5-5-7-7
A-5-5--5-5--7-7--3-3--3-3-2-2|-5-5-5--5-5-5--7-7-7--3-3-2-2-3-3-5-5
E-3-3------------------------|-3-3-3-------------------------------

BRIDGE (2X)
e--------------------------------|--------------------------------
B--------------------------------|--------------------------------
G-4-4-4-4-5-5-5-5---------7-7-7-7|-4-4-4-4-5-5-5-5-7-7-7-7-7-7-7-7
D-4-4-4-4-5-5-5-5-5-5-5-5-7-7-7-7|-4-4-4-4-5-5-5-5-7-7-7-7-7-7-7-7
A-2-2-2-2-3-3-3-3-5-5-5-5-5-5-5-5|-2-2-2-2-3-3-3-3-5-5-5-5-5-5-5-5
E-----------------3-3-3-3--------|--------------------------------

CHORUS 
(3x)
e----------------------------
B----------------------------
G---7-9-9-9-9-5-5-5-5-5-5-5-5
D-5-7-9-9-9-9-5-5-5-5-5-5-5-5
A-5-5-7-7-7-7-3-3-3-3-3-3-3-3
E-3--------------------------
(1X)
e----------|----------|----
G-----7---5|-----7---5|----
D-5---7---5|-5---7---5|-5-5
A-5---5---3|-5---5---3|-5-5
E-3--------|-3--------|-3-3

There you have it, "On My Own" by 21 Pennies.  Just listen to the song
to get the exact rhythms and then it should be easy enough.  
NJ representing, Kill Kortney and Shattered Empire in the hizouse.




Comments