12 Stones - Way I Feel Chords & Tabs

 

Way I Feel Chords & Tabs

12 Stones Chords & Tabs

Version: 1 Type: Tab 0 ratings
1 star 2 stars 3 stars 4 stars 5 stars
comments

Way I Feel Tab

   
Band: 12 Stones
Song: The Way I Feel
Tuning: Drop C low to high C G C F A D

Verse
--------------------------------------
--------------------------------------
--------------------------------------
-----10-----10-------10-----10---10---
---8----8----------8----8-------------
-0--------0----0-8--------8----8------

--------------------------------------
--------------------------------------
---------------------------------10---
-----10-----10-------10-----10--------
---8----8----------8----8-------------
-0--------0----0-8--------8----8------

Chorus
----------------------------------------------------
----------------------------------------------------
---------3-3-3-3------------------------------------
-x-x-0-0-3-3-3-3-3-3-3-5-5-5-5-3h5------------------
-x-x-0-0-1-1-1-1-3-3-3-5-5-5-5-3h5------------------
-x-x-0-0---------3-3-3-5-5-5-5-3h5------------------

--------------------------------
--------------------------------
------3-3-3-3-5-5-x-x-5-5-x-x-5-
--0-0-3-3-3-3-5-5-x-x-5-5-x-x-5-
--0-0-1-1-1-1-3-3-x-x-3-3-x-x-3-
--0-0---------------------------

Solo
-----------------------------------------------------------
-----------------------------------------------------------
----------------------------10----------------10-8---------
-10-10-10-12-13-12-15-13-12-8-10-8-8--8--8-10----10\8-8--10
----------------------------0-------10-10--------------10--
-----------------------------------------------------------
[ Tab from: http://www.guitartabs.cc/tabs/0-9/12_stones/way_i_feel_tab.html ]
-----------------------------------------------------------------
------------------------------------------------------13-13-13-16
7-8-10-8-8/9-8/9-10\8-12-15-12-15-12-15-12-14-17-15-12-----------
-----------------------------------------------------------------
-----------------------------------------------------------------
-----------------------------------------------------------------

------------------------------------------------------------------
-13-13-13-16-13-13-13-11-13--11-----------------------------------
---------------------------12--10-10-8-8-10-8-8--8-9-10-12-15-12--
-----------------------------------------------10-----------------
------------------------------------------------------------------
------------------------------------------------------------------

------------------------------------------------------------------
---------------------16-13-11--------------------------15-16-15-13
-10-12-10-12-10-12-10--------11-13-11-13-11-13-11-15-16-----------
------------------------------------------------------------------
------------------------------------------------------------------
------------------------------------------------------------------

-------------------------------------------------------------------
----13--13---------------------------------------------------------
--15--15-----------------------------------------------------------
-------------------------------------------------------------------
-------------------------------------------------------------------
-------------------------------------------------------------------
Comments