12 Stones - The Way I Feel Chords & Tabs

 

The Way I Feel Chords & Tabs

12 Stones Chords & Tabs

Version: 9 Type: Tab 0 ratings
1 star 2 stars 3 stars 4 stars 5 stars
comments

The Way I Feel Tab

   
---------------------------------------------------------------------------
                               12 Stones-The Way I Feel
---------------------------------------------------------------------------
Tuning Low to High: CGCFAd
Key of D#

Verse: Clean
d------------------------------------------------------------|
A------------------------------------------------------------|
F---------------------------------------------------------10-|x5
C-----10---10------10---10--10-----10---10------10---10------|
G---8------------8---------------8------------8--------------|
C-0------0---0-8------8---8----0------0---0-8------8----8----|

d------------------------------------------------|
A------------------------------------------------|
F------------------------------------------------|
C-----10---10-----10---10-----10---10------10-00-|
G---8-----------8-----------8------------8----00-|
C-0------0--0-8------8----0------0---0-8------00-|
                                              ..
Chorus: Distorted
d----------------------------------------------------------------|
A----------------------------------------------------------------|
F----------------------------------------------------------------|
C-0-000-8-8888-8-3-3-3-3/555-3-50-0-000-8-8888-810-1000-10-00-10-|
G-0-000-8-8888-8-3-3-3-3/555-3-50-0-000-8-8888-810-1000-10-00-10-|
C-0-000-8-8888-8-3-3-3-3/555-3-50-0-000-8-8888-810-1000-10-00-10-|
     ..                              ..              ..    ..

d--------------------------------------------------------------|
A--------------------------------------------------------------|
F-7~~--10~~~~~-9-5~~~~~~-7~~~~7~~~~--10~~~~~~~12~~~---12~---12-|
C-0-000-8-8888-8-3-3-3-3/5-5-50-0-000-8-8888-810-1000-10-00-10-|
G-0-000-8-8888-8-3-3-3-3/5-5-50-0-000-8-8888-810-1000-10-00-10-|
C-0-000-8-8888-8-3-3-3-3/5-5-50-0-000-8-8888-810-1000-10-00-10-|
     ..                            ..              ..    ..

Verse

Chorus

Solo: Distorted; Play chorus clean x1 then distorted x2 behind solo
d-------------------------------------------------------------------------------|
A----------------------------------------------------------------------------10-|
F------------9-10-12-10-9-10-9------------------------10----10-9-------10-12----|
C-12---10-12-------------------12-------10---10-10-12----12------10-12----------|
G---------------------------------10-12-----------------------------------------|
C-------------------------------------------------------------------------------|
                                               
d-------------------------------12-13-15-13-12------------------------------|
A-13-10-13-10-13-13-10-13-13-15----------------15--15--15-15--15--15--15-15-|
F---------------------------------------------------------------------------|
C---------------------------------------------------------------------------|
G---------------------------------------------------------------------------|
C---------------------------------------------------------------------------|
[ Tab from: http://www.guitartabs.cc/tabs/0-9/12_stones/the_way_i_feel_tab_ver_9.html ]
d-------------------------------------15-15-------------------------------------|
A-18p15h18-18h15p18-15-15-15-18h15p18-------18-18p15h18-15-15-13-13-13h15p13----|
F-------------------------------------------------------------------------------|
C-------------------------------------------------------------------------------|
G-------------------------------------------------------------------------------|
C-------------------------------------------------------------------------------|

d------------------17---13-15-17p15-13-15-17-15-13-------------------------------|
A--------------------------------------------------15-13h15p13-13----------------|
F-12h14p12--------------------------------------------------------12h14p12-12----|
C----------12--000------------------------------------------------------------12-|
G--------------000---------------------------------------------------------------|
C--------------000---------------------------------------------------------------|
               ... 
d---------------------------------------------------------------------------------|
A-------------10----10-15-13------------------------------------------------------|
F-------10-12----12----------14b--12h14-14-12h14-14-12h14-14-12h14-14-12h14-12h14-|
C-14-12---------------------------------------------------------------------------|
G---------------------------------------------------------------------------------|
C---------------------------------------------------------------------------------|

d--------------|
A--------------|
F--12h14~~~~~--|
C--------------|
G--------------|
C--------------|

Chorus Riff1:x2 Clean; x3 Distorted

End Solo
d-------------------------------------------------------------------------|
A----------------------------------------------10------10-13-13-13--13-15-|
F-14b-----------9--10-9-10--9-10-10/12---10-12------12--------------------|
C-----12--10-12-----------------------------------------------------------|
G-------------------------------------------------------------------------|
C-------------------------------------------------------------------------|

d-12-13-15-13-12-12-12-12h13-13-15-13-12----13-15-13-17b-17b-17b-17-|
A----------------------------------------15-------------------------|
F-------------------------------------------------------------------|
C-------------------------------------------------------------------|
G-------------------------------------------------------------------|
C-------------------------------------------------------------------|


d-13-15-13----------------------------------------------------------------------------|
A----------15-13-15-13-------------------------13-15-13-------------------------------|
F----------------------14-12----------10-12-14----------14-12h14-12-10-12-10-12-12/14-|
C----------------------------12-10-12-------------------------------------------------|
G-------------------------------------------------------------------------------------|
C-------------------------------------------------------------------------------------|

.=palm mute
~=hold
b=bend
/=slide up
\=silde down
h=hammer on
p=pull off
Comments