12 Stones - The Way I Feel Chords & Tabs

 

The Way I Feel Chords & Tabs

12 Stones Chords & Tabs

Version: 8 Type: Tab 0 ratings
1 star 2 stars 3 stars 4 stars 5 stars
comments

The Way I Feel Tab

   
                            /````| /`````\  
                            ``|  | \  )  |      
                              |  |  ``/  /     
                              |  |   /   `| 
                              ````   ``````
12 stones- The Way I Feel
Tabbed by: žogaender
Regular Tuning (E,A,D,G,B,E)

Intro/Filler
|-------------------------------------------------------------------------|
|-------------------------------------------------------------------------|
|---------------------------------------8---------------------------------|
|---8--8------8--8-8-----8--8------8--8-8---------------------------------|
|--6--6------6--6-------6--6------6--6------------------------------------|
|-6-------6------------6-------6------------------------------------------|
(x6) Then on 7th do this...
|-------------------------------------------------------------------------|
|-------------------------------------------------------------------------|
|---------------------------------------88--------------------------------|
|---8--8------8--8-8-----8--8------8--8-88--------------------------------|
|--6--6------6--6-------6--6------6--6--66--------------------------------|
|-6-------6------------6-------6--------66--------------------------------|
::Note:: Instead of using 2 fingers to do all that... just make this chord
|-6-|
|-7-|
|-8-|
|-8-|
|-6-|
|-6-|
Chorus
|----3x--4x-4--6-6--6x-6---|
|----4x--4x-4--8-8--6x-6---|
|----5x--5x-5--8-8--7x-7---|
|----5x--6x-6--8-8--8x-8---|
|----3x--6x-6--6-6--8x-8---|
|----3x--4x-4--6-6--6x-6---|
Or something like that. That should be a close strumming pattern and for anyone
who doesn't know, -x- means a palm muted note

as for the solo part... im not sure how it goes
but, i know it goes something like this
|-------------------------------------------------------------|
|-------------------------------------------------------------|
|-------------------------------------------------------------|
|-10-10-10-12-13-12-15-13-12-8-10-8-8--8--8-10-8-8--10--------|
|------------------------------------10-10--------10----------|
|-------------------------------------------------------------|
[ Tab from: http://www.guitartabs.cc/tabs/0-9/12_stones/the_way_i_feel_tab_ver_8.html ]
|-------------------------------------------------------------|
|------------------------------------------------------13-13-13|
|7-8-10-8-8-9-8-9-10-8-12-15-12-15-12-15-12-14-17-15-12-------|
|-------------------------------------------------------------|
|-------------------------------------------------------------|
|-------------------------------------------------------------|

|-------------------------------------------------------------|
|13-13-13-13-13-16-13-13-16-13-16-13-13-13-16-13-11-13--11----|
|-----------------------------------------------------12--10-10|
|-------------------------------------------------------------|
|-------------------------------------------------------------|
|-------------------------------------------------------------|

|-------------------------------------------------------------|
|--------------------------------------------------16-13-13---|
|8-8-10-8-8-10-8-9-10-12-15-12-10-12-10-12-10-12-10--------11-|
|-------------------------------------------------------------|
|-------------------------------------------------------------|
|-------------------------------------------------------------|

|-------------------------------------------------------------|
|-----------------------15-16-15-13--13--13-------------------|
|13-11-13-11-13-11-15-16-----------15--15---------------------|
|-------------------------------------------------------------|
|-------------------------------------------------------------|
|-------------------------------------------------------------|
Or something
Order-
Intro: x3
Verse/intro: x3 then 1 more time with the alternate end
Chorus: x1
Intro: x2
Verse/intro: x3 then 1 more time with the alternate end
Chorus: x1
Solo: x1 =D
Chorus: x2 (For the first time u play the chorus, play it without distortion to get the acoustic effect
Outro: hold the Cm out and let it fade (x1)
XXXXXXXXXXXXXXXXXXXXXXXXXXXXXXXXXXXXXXXXXXXXXXXXXXXXXXXXXXXXXXXXXXXXXXXXXXX
I'd like to thank noleafclover6879    for a good amount of help
Contact info:: Sogaender@yahoo.com
Please feel free to correct this if it needs to be corrected.
Please Rate this tab also.
XXXXXXXXXXXXXXXXXXXXXXXXXXXXXXXXXXXXXXXXXXXXXXXXXXXXXXXXXXXXXXXXXXXXXXXXXXX
Comments