12 Stones - The Way I Feel Chords & Tabs

 

The Way I Feel Chords & Tabs

12 Stones Chords & Tabs

Version: 7 Type: Tab 0 ratings
1 star 2 stars 3 stars 4 stars 5 stars
comments

The Way I Feel Tab

   
Band: 12 Stones
Song: The Way I Feel
Tuning: Drop C low to high C G C F A D

Verse
--------------------------------------
--------------------------------------
--------------------------------------
-----10-----10-------10-----10---10---
---8----8----------8----8-------------
-0--------0----0-8--------8----8------

--------------------------------------
--------------------------------------
---------------------------------10---
-----10-----10-------10-----10--------
---8----8----------8----8-------------
-0--------0----0-8--------8----8------

Chorus
----------------------------------------------------
----------------------------------------------------
---------3-3-3-3------------------------------------
-x-x-0-0-3-3-3-3-3-3-3-5-5-5-5-3h5------------------
-x-x-0-0-1-1-1-1-3-3-3-5-5-5-5-3h5------------------
-x-x-0-0---------3-3-3-5-5-5-5-3h5------------------

--------------------------------
--------------------------------
------3-3-3-3-5-5-x-x-5-5-x-x-5-
--0-0-3-3-3-3-5-5-x-x-5-5-x-x-5-
--0-0-1-1-1-1-3-3-x-x-3-3-x-x-3-
--0-0---------------------------

Solo
-----------------------------------------------------------------------
-----------------------------------------------------------------------
-------------9-10-12-10-9-10p9----------------------10----10-9-------10
-10/12-10-12-------------------10-------10----10-12----12------10-12---
----------------------------------10-12----12--------------------------
-----------------------------------------------------------------------
[ Tab from: http://www.guitartabs.cc/tabs/0-9/12_stones/the_way_i_feel_tab_ver_7.html ]
---------------------------------------10-12-13-15-13-12-13-12-10-12---
---------10-13-10-13-10-13-13-10-13-13-------------------------------13
---10-12---------------------------------------------------------------
-12--------------------------------------------------------------------
-----------------------------------------------------------------------
-----------------------------------------------------------------------

-10-10-10-10-10-10-10-10-10-10-10-10-13-10----13-10----13-10----10-10--
-------------------------------------------13-------13-------13--------
-----------------------------------------------------------------------
-----------------------------------------------------------------------
-----------------------------------------------------------------------
-----------------------------------------------------------------------


-10-10-13-10----10-15-15-13-10-13-10----10-10-------------------17/15--
-------------13----------------------13-------13-10--------------------
----------------------------------------------------12-12-10-----------
-------------------------------------------------------------12--------
-----------------------------------------------------------------------
-----------------------------------------------------------------------

-13-15-17p15p13----13-17-15-13h15p13----13-----------------------------
----------------15-------------------15----15-13h15p13----13-----------
-------------------------------------------------------14----14-12-----
-------------------------------------------------------------------15--
-----------------------------------------------------------------------
-----------------------------------------------------------------------

-----------------------------------------------------------------------
----------------------------15-13-15p13h15----13-----------------------
----14-14-12----------12-14----------------14----14-12-14-14-12-14-14--
-12----------15-12-15--------------------------------------------------
-----------------------------------------------------------------------
-----------------------------------------------------------------------

-----------------------------------
-------------------------------15--
-12-14-14-12-14-14-12-14-14-14-----
-----------------------------------
-----------------------------------
-----------------------------------

And That's about it...Good Luck
Comments