12 Stones - The Way I Feel Chords & Tabs

 

The Way I Feel Chords & Tabs

12 Stones Chords & Tabs

Version: 5 Type: Tab 0 ratings
1 star 2 stars 3 stars 4 stars 5 stars
comments

The Way I Feel Tab

This song is played in c, and the sixth string tuned a half step down, i call that 
droped c dropped d. Sorry if theres any mistakes but i tabbed this without a guitar 
at school so........
[ Tab from: http://www.guitartabs.cc/tabs/0-9/12_stones/the_way_i_feel_tab_ver_5.html ]
1|---------------------|------------------------
2|---------------------|------------------------
3|---------------------|------------------------
4|---4-5-55----4-5-55--|---4-5-55-------4-5-55--
5|--2------2--2-------2|--0-------0----0-------0
6|-2---------2---------|-0---------0--0---------

1|----------------------------------------------
2|----0-33-0--3-0-------0-5-0--0-5-0------------
3|----------------------------------------------
4|--5-----5--5--------7------7--7---------------
5|-3-----------------5--------------------------
6|----------------------------------------------
Comments