12 Stones - The Way I Feel Chords & Tabs

 

The Way I Feel Chords & Tabs

12 Stones Chords & Tabs

Version: 4 Type: Tab 0 ratings
1 star 2 stars 3 stars 4 stars 5 stars
comments

The Way I Feel Tab

this is the only part of the song i have right now because i noticed people where having trouble with 
it and i decided to try and get it i don't know what tuning its played in or any of that yet but this 
sounds pretty accurate this is from the aucustic version so i don't know if he has any fx shit on it

:/-----------------------------------------------------------
:/-----------------------------------------------------------
:/----------------------------10----------------10-8---------
:/-10-10-10-12-13-12-15-13-12-8-10-8-8--8--8-10----10\8-8--10
:/----------------------------0-------10-10--------------10--
:/-----------------------------------------------------------

:/-----------------------------------------------------------------
:/------------------------------------------------------13-13-13-16
:/7-8-10-8-8/9-8/9-10\8-12-15-12-15-12-15-12-14-17-15-12-----------
:/-----------------------------------------------------------------
:/-----------------------------------------------------------------
:/-----------------------------------------------------------------
[ Tab from: http://www.guitartabs.cc/tabs/0-9/12_stones/the_way_i_feel_tab_ver_4.html ]
:/-----------------------------------------------------------------
:/13-13-13-16-13-13-13-11-13--11-----------------------------------
:/--------------------------12--10-10-8-8-10-8-8--8-9-10-12-15-12--
:/----------------------------------------------10-----------------
:/-----------------------------------------------------------------
:/-----------------------------------------------------------------

:/-----------------------------------------------------------------
:/--------------------16-13-11--------------------------15-16-15-13
:/10-12-10-12-10-12-10--------11-13-11-13-11-13-11-15-16-----------
:/-----------------------------------------------------------------
:/-----------------------------------------------------------------
:/-----------------------------------------------------------------

:/-----------------------------------------------------------------
:/--13--13---------------------------------------------------------
:/15--15-----------------------------------------------------------
:/-----------------------------------------------------------------
:/-----------------------------------------------------------------
:/-----------------------------------------------------------------
Comments